Kim Fransson - Let That Feeling Grow chords

Highlighted       Show chord diagrams
Tabbed for Standard tuning
Tabbed by Jeppe
Songwriters: K. Fransson, F. Hallström, Andreas Carlsson
BPM: 80

~    = Vibrato

Intro
E  B |A    x 2

Solo
e----------------------------------------------------------------|
B----------------------------------------------------------------|
G--9-13-13-13-13-11-9-11~---11-9-8-----6-9----6-9----6-9---------|
D------------------------------------7------7------7-------------|
A----------------------------------------------------------------|
E----------------------------------------------------------------|


e----------------------------------------------------------------|
B----------------------------------------10^---------------------|
G--9-13-13-13-13-11-9-11~---11-9-8-----6-------------------------|
D------------------------------------7---------------------------|
A----------------------------------------------------------------|
E----------------------------------------------------------------|

Verse 1
G#m                 A
My heart was aching baby
              E
For a special place
 G#m                 A
That I could call my own
               E     B
Somehow I just know, oh
    F#m                  A
My lonely wait is over
B                 E
Let that feeling grow
        B                A
Cause I feel like coming home
Let that feeling grow

Chorus

E       B             F#m        A
I wanna hide inside your warm embrace
F#m          A             E         B
And say that your the 1 in a million ways
E             B            F#m          A
Just learn to trust like in my childhood days
F#m       A            E      B
Without a reason to go slow
A
Just let that feeling grow


Interlude (play intro solo)
E  B |A    x 2


Verse 2

G#m                A
My soul was like a flower
                E
Longing for the rain
 G#m               A
But that was yesterday
                     E     B
Cause somehow I just know
      F#m
We're onto something better
A
Let that feeling grow

Chorus

E       B             F#m        A
I wanna hide inside your warm embrace
F#m          A             E         B
And say that your the 1 in a million ways
E             B            F#m          A
Just learn to trust like in my childhood days
F#m       A            E      B
Without a reason to go slow
A
Just let that feeling grow

Bridge
C     C/B                    A         B   C
When I lay down at night I'm dreaming
      C/B               F    G
I see you throughout my life
C      C/B                   A          B  C
That's the one thing that I believe in
     C/B              F      A
Just tell me that I'm right
    B
And let that feeling grow

Chorus

E       B             F#m        A
I wanna hide inside your warm embrace
F#m          A             E         B
And say that your the 1 in a million ways
E             B            F#m          A
Just learn to trust like in my childhood days
F#m       A            E      B
Without a reason to go slow
A
Just let that feeling grow

E  B |A

http://www.kimfransson.net/live/
Tap to rate this tab
 
# A B C D E F G H I J K L M N O P Q R S T U V W X Y Z