Song name
# A B C D E F G H I J K L M N O P Q R S T U V W X Y Z

Kim Jong Kook - Men Are All Like That tab

Men are all like that (Intro) - Kim Jong Kook

Capo: 1

E|----2-3-2-0-----2-2--------2-3-2-0-----5-5--------5-7-5-3---2-3-3----------|
B|--------------3----------------------3-------------------------------------|
G|--2------------------------------------------------------------------------|
D|---------------------------------------------------------------------------|
A|---------------------------------------------------------------------------|
E|---------------------------------------------------------------------------|

E|--3-5-3-2---0----------------2-3-2-0-----2-2--------2-3-2-0-----5-5--------|
B|--------------5-5----------------------3----------------------3------------|
G|---------------------------2-----------------------------------------------|
D|---------------------------------------------------------------------------|
A|---------------------------------------------------------------------------|
E|---------------------------------------------------------------------------|

E|--5-7-5-3---2-3-3----------3-5-3-2---0---------------2-3-2-0---------------|
B|---------------------------------------5-5---------------------2-3-3-------|
G|---------------------------------------------------2-----------------------|
D|---------------------------------------------------------------------------|
A|---------------------------------------------------------------------------|
E|---------------------------------------------------------------------------|
Tap to rate this tab
# A B C D E F G H I J K L M N O P Q R S T U V W X Y Z