Song name
# A B C D E F G H I J K L M N O P Q R S T U V W X Y Z

Kim Larsen - Midt Om Natten tab

INTRO:
e|---------------------------------------------------------------------------|
B|---------------------------------------------------------------------------|
G|---------------------------------------------------------------------------|
D|-------5-----5-------6-----6---6-------------------------------------------|
A|----3-----3-------3----3---------------------------------------------------|
E|---------------------------------------------------------------------------|

e|---------------------------------------------------------------------------|
B|---------------------------------------------------------------------------|
G|---------------------------------------------------------------------------|
D|----5--5--5----5-------3----1----3----1--1--1-----1-------1----------------|
A|------------------------------------------------------3-------3------------|
E|---------------------------------------------------------------------------|
                              PLAY 2 TIMES

e|---------------------------------------------------------------------------|
B|---------------------------------------------------------------------------|
G|---------------------------------------------------------------------------|
D|----0-----5--5--5--5--5--5--7--8--7--5--5---5----1----0----------1----1----|
A|--------------------------------------------------------------------3----3-|
E|---------------------------------------------------------------------------|
            PLAY 2 TIMES (except verse 3; play it 3 times there)
Tap to rate this tab
# A B C D E F G H I J K L M N O P Q R S T U V W X Y Z