Song name
# A B C D E F G H I J K L M N O P Q R S T U V W X Y Z

Kim Larsen - Som Et Strejf Af En Drabe tab

-------------------------------------------------------------------------------
                             Som et strejf af en dråbe - Kim Larsen (Gasolin)
-------------------------------------------------------------------------------
Tabbed by: Gepeto
Email: okutixua@yahoo.es

Tuning: Standard

Kim Larsen was singer of the r´n´r´ band "Gasolin". But This tab is from Kim Larsen´s CD
"Det var en torsdag aften".

It is some kind od difficult to explain how it goes, but very simple to play when understood.

The tab is ment to be played following the keyboard chords, and fingerpicking.
Chords are simple, following the pattern C G F G...

The whole song is basically:

Cx2  Gx4  Fx4  Gx4
Cx2  Gx4  Fx4  Gx4

(where "x2" and "x4" means repeat 2 and 4 times).

----------------------------------

Cx2  Gx4  Fx4  Gx4
Cx2  Gx4  Fx4  Gx4

(fingerpicking)


G(4th) C            G  G(3rd)    F
Som et strejf af en dråbe

F(2nd)            G G(2nd)
fik vi lov til at håbe

G(4th) C            G  G(3rd)    F
på de ting som skal komme

F(2nd)           G G(2nd)        C
før end livet er omme


(C  G  F  G  C) x3

-----------------------------------

In the tab: String pattern

CHORD: C

e|---------------------------------------------------------------------------|
B|------1----------1---------------------------------------------------------|
G|----2---2------2---2-------------------------------------------------------|
D|---------------------------------------------------------------------------|
A|--3----------3-------------------------------------------------------------|
E|---------------------------------------------------------------------------|
   (1st)      (2nd)




CHORD: G

e|---------------------------------------------------------------------------|
B|------0---------0-----------0---------0------------------------------------|
G|----0---0-----0---0-------0---0-----0---0----------------------------------|
D|---------------------------------------------------------------------------|
A|------------------------2---------2----------------------------------------|
E|--3---------3--------------------------------------------------------------|
   (1st)     (2nd)       (3rd)     (4th)




CHORD: F

e|---------------------------------------------------------------------------|
B|------1---------1-----------1----------1-----------------------------------|
G|----2---2-----2---2-------2---2------2---2---------------------------------|
D|---------------------------------------------------------------------------|
A|------------------------1----------1---------------------------------------|
E|--1---------1--------------------------------------------------------------|
   (1st)     (2nd)       (3rd)      (4th)



CHORD: G

e|---------------------------------------------------------------------------|
B|------0---------0-----------0---------0------------------------------------|
G|----0---0-----0---0-------0---0-----0---0----------------------------------|
D|---------------------------------------------------------------------------|
A|------------------------2---------2----------------------------------------|
E|--3---------3--------------------------------------------------------------|
   (1st)     (2nd)       (3rd)     (4th)



...And start over again with C Chord.

(1st), (2nd), (3rd), and (4th) 

means the first, second, third and fourth time you stroke the bass string.

So when adding the text to sing along, just know when to start singing
by remembering which stroke it goes.


G(4th) C            G  G(3rd)    F
Som et strejf af en dråbe

F(2nd)            G G(2nd)
fik vi lov til at håbe

G(4th) C            G  G(3rd)    F
på de ting som skal komme

F(2nd)           G G(2nd)        C
før end livet er omme


Just listen to the song a few times ...or more.

Enjoy.

Gepeto
Tap to rate this tab
# A B C D E F G H I J K L M N O P Q R S T U V W X Y Z