Song name
# A B C D E F G H I J K L M N O P Q R S T U V W X Y Z

Kim Larsen - Hva Gr Vi Nu Lille Du tab

Hva gør vi nu lille du - Kim Larsen / Gasolin
Analyzed, construed and written down by M Lakestone, Växjö October 2012


Intro:

 C                                                 
e:|-------0-1-0-1---0---------------|
B:|-----1-------------1---1-----1---|
G:|---0-----------0-----0-----0---0-| x 2
D:|---------------------------------|
A:|-3-----3-3-3-3---3-------3-------|
E:|---------------------------------|

Vers.

 C                  G                 C                 C
e:|-----------------|-----------------|---------0-------|-------0-0---0---|
B:|-------1-1---1---|-3---3-3-0---0---|-1-----------1---|-------1-1---1---|
G:|-----0-0-0---0---|-0---0-0---2-----|---0---0---0---0-|-----0-----0---0-|
D:|---2-------2---2-|---0-----------0-|-----2-----------|---2-------------|
A:|-3-----3-3---3---|-----------------|-3---------------|-3-----3-3---3---|
E:|-----------------|-3---------------|-----------------|-----------------|
         
         Jeg kom til verden på femte sal                       Min far var tosset min ...

 F          C                 C                 G         F         C
e:|-1---1---|-0---------------|-----------------|---------|---1-----|----------0-------|
B:|-1---1---|---1---1-----1---|-------1-1---1---|-0---0-0-|-----1---|-h1-----------1---|
G:|---2---2-|-----0-----0---0-|-----0-0-0---0---|-0---0-0-|-2-----2-|----0---0---0---0-|
D:|---------|-----------------|---2-------2---2-|---0-----|---3-----|------2-----------|
A:|---------|-3-------3-------|-3-----3-3---3---|---------|---------|-h3---------------|
E:|-1---1---|-----------------|-----------------|-3---3-3-|-1-------|------------------|
  
   mor var normal                    Men da de kørte ham væk, sagde moar til mig

  C    C#    Dm/A                 G         F         C
e:|-----|-----|---------1-1---0---|---------|---------|----------0-------|
B:|-1---|-2---|-3-----------------|-3-------|-1---1---|-h1-----------1---|
G:|-----|-----|---2---2-----2---2-|---0---0-|-2---2---|----0---0---0---0-|
D:|---2-|---3-|-----0---0-0-------|-----0---|---3---3-|------2-----------|
A:|-3---|-4---|-0-----------------|---------|---------|-h3---------------|
E:|-----|-----|-------------------|-3-------|-1---1---|------------------|

                       Hva' gør vi nu       lille       du

 
Verse 1:
Jeg kom til verden på femte sal.
Min far var tosset min mor var normal.
Men da de kørte ham væk, sagde moar til mig.   
Hva' gør vi nu, lille du.

Verse 2:
Jeg gik i skole i mange år.
Røg på fabrik og fik mavesår.
Men så en dag sparked' bossen mig ud.
Hva' gør man så, lille du.

Verse 3:
Og tiden gik og jeg gik med.
Jeg fløj af sted fra sted til sted.
Og gadens løse fugle de fjøjted' og sang.
Hvor skal vi hen, lille du.

Speak Verse:
Men så en dag gik jeg op til ministeren og sa':
Du der få lige fødderne ned og ta' hatten af,
mand, kan du ikk' se at det hele er ved at gå fuldstændig agurk?
Så hva' gør vi nu din gamle skurk.

Men han grinte bar' og sagde:
Dig du ka' squ gå fanden i vold.           
Så det gør vi nu, lille du. Ja vi gør...
Tap to rate this tab
# A B C D E F G H I J K L M N O P Q R S T U V W X Y Z