Song name
# A B C D E F G H I J K L M N O P Q R S T U V W X Y Z

Kim Morrison - El Amar tab

                              El amar 
                                                                       
Guitar 1 
Chords: Em - Bm - A - C#/C - B


 Intro:  x7  
E||-------------------------------|-------------------------------|
B||-------------------------------|-------------------------------|
G||*--5s-7-7--5----------5--------|-------3-------------1--------*|
D||*-------------7--5s-7-------7--|--3s-5-------5--1s-3-------3--*|
A||-------------------------------|-------------------------------|
E||-------------------------------|-------------------------------|

Verso:
Viviendo en un sueņo
soņando despierto
es cmo buscar
El agua en el desierto

Pero es algo normal
Te hace pensar
En alguien todo el dia
Y no lo puedes cambiar

Se vuelve melancolia
El pensar que no esta
Te da miedo perderla
Si tu te vas


Pre Coro:                     
|--------------------------|--------------------------|
|--------------------------|--------------------------|
|--7--7--7--7--7--7--7--7--|--7--7--7--7--7--7--7--7--|
|--7--7--7--7--7--7--7--7--|--6--6--6--6--6--6--6--6--|
|--5--5--5--5--5--5--5--5--|--5--5--5--5--5--5--5--5--|
|--------------------------|--------------------------|

  
Coro:
|---------------------------|--------------------------|
|---------------------------|--------------------------|
|*--9--9--9--9--9--9--9--9--|--9--9--9--9--9--9--9--9--|
|*--9--9--9--9--9--9--9--9--|--9--9--9--9--9--9--9--9--|
|---7--7--7--7--7--7--7--7--|--7--7--7--7--7--7--7--7--|
|---------------------------|--------------------------|
                Amar es sentir miedo de perder
  
--------------------------|--------------------------|
--------------------------|--------------------------|
--4--4--4--4--4--4--4--4--|--4--4--4--4--4--4--4--4--|
--4--4--4--4--4--4--4--4--|--4--4--4--4--4--4--4--4--|
--2--2--2--2--2--2--2--2--|--2--2--2--2--2--2--2--2--|
--------------------------|--------------------------|
                        A quienn mas se ama
   
--------------------------|--------------------------|
--------------------------|--------------------------|
--------------------------|--------------------------|
--7--7--7--7--7--7--7--7--|--7--7--7--7--7--7--7--7--|
--7--7--7--7--7--7--7--7--|--7--7--7--7--7--7--7--7--|
--5--5--5--5--5--5--5--5--|--5--5--5--5--5--5--5--5--|
         Te da miedo perderla             

         
----------------------------------|-------------------------------||
----------------------------------|-------------------------------||
----------------------------------|------------------------------*||
--11--11--11--11--11--11--11--11--|--10--10--10--10--9--9--9--9--*||
--11--11--11--11--11--11--11--11--|--10--10--10--10--9--9--9--9---||
---9---9---9---9---9---9---9---9--|---8---8---8---8--7--7--7--7---||
               Si tu no estas         (Se repite el coro)


Outro:
Em  
--------------------------|--------------------------|
--------------8-----------|--------------8-----------|
--------9--------9-----9--|--------9--------9-----9--|
-----9-----9--------9-----|-----9-----9--------9-----|
--7-----------------------|--7-----------------------|
--------------------------|--------------------------|

Bm
--------------------------|--------------------------|
--------------3-----------|--------------3-----------|
--------4--------4--------|--------4--------4--------|
-----4-----4--------4-----|-----4-----4--------4-----|
--2--------------------2--|--2--------------------2--|
--------------------------|--------------------------|

Am                                                    C#m
--------------------------|--------------------------|---------------------|
-----------------------5--|-----------------------5--|---------------------|
--------------6-----------|--------------6-----------|---------------------|
--------7--------7--------|--------7--------7--------|--11-----------------|
-----7-----7--------7-----|-----7-----7--------7-----|--11-----------------|
--5-----------------------|--5-----------------------|---9-----------------|

Se repite toda, solo que no ya no se toca el pre coro y se repite el intro al final.

Gracias.
Tap to rate this tab
# A B C D E F G H I J K L M N O P Q R S T U V W X Y Z