Kim Taylor - Days Like This tab

This is my first tab ever so feel free to point out anything that needs fixing :)

Standard Tuning, Capo 1

Intro: (play twice)
(C Major)                                                      (A minor)
E--------------------------------------------------------------------------|
B-------------1-------1-------1-------------1-------1--------------------1-|
G---------0-------0-------0-------------0-------0-------0---0--------2-----|
D----2------2-------2-------3------2------2-------2-------------2------2---|
A--3----3-------3--------3-------3----3-------3-------3---2---0----0-------|
E--------------------------------------------------------------------------|

E-----------------------------------------------|
B-------1-------1------------1-------1-------1--|
G---2-------2------------2-------2-------2------|
D-----2--------2----2------2-------2------------|
A-0-------0-------0----0-------0-------0---2----|
E-----------------------------------------------|

1st verse: Repeat Intro twice, then play this three times:
(F major)                        (A minor)
E------------------------------------------------------------------------|
B-------------1-------1-------1-------------1-------1-------1------------|
G---------2-------2-------2-------------2-------2-------2----------------|
D----3------3-------3-------3------2------2-------2-------2--------------|
A--3----3-------3-------3--------0----0-------0-------0------------------|
E------------------------------------------------------------------------|
"And all I wanna do is live my life honestly..."

(G major)                       (G suspended)
E-----------------------------------------------------------------------|
B-------------0-------0-------0-----------0-------0-------0-------------|
G---------0-------0-------0-----------0-------0-------0-----------------|
D----0------0-------0-------0-----0-----0-------0-------0---------------|
A-----------------------------------------------------------------------|
E--3----3-------3-------3-------1----1------1-------1-------------------|
"And it will be good for me..." ^(only play this part once)

The second verse is exactly the same as the first. The backing acoustic during the 
solo is basically playing the intro with slight variations. Here are the tabs for the guitar solo:

E-----------------------------------------------------------------------------|
B--------------------1-3-1---------------0/1--0---------1-3-1---3-1---1--0--1-|
G--0/2--0--------0-2-------2-0------------------2---0-2-------0-----0---------|
D---------0/2------------------2-0/2--3---------------------------------------|
A-----------------------------------------------------------------------------|
E-----------------------------------------------------------------------------|

After the guitar solo:

(F major)                        (A minor)
E------------------------------------------------------------------------|
B-------------1-------1-------1-------------1-------1-------1------------|
G---------2-------2-------2-------------2-------2-------2----------------|
D----3------3-------3-------3------2------2-------2-------2--------------|
A--3----3-------3-------3--------0----0-------0-------0------------------|
E------------------------------------------------------------------------|
"And all I wanna do is live my life honestly..." ^play 3 times

(G major)                       (G suspended)
E-----------------------------------------------------------------------|
B-------------0-------0-------0-----------0-------0-------0-------------|
G---------0-------0-------0-----------0-------0-------0-----------------|
D----0------0-------0-------0-----0-----0-------0-------0---------------|
A-----------------------------------------------------------------------|
E--3----3-------3-------3-------1----1------1-------1-------------------|
"And it will be good for me..." ^play once


The ending is the same as the intro. The song ends on a slowly strummed A minor chord.
Tap to rate this tab
 
# A B C D E F G H I J K L M N O P Q R S T U V W X Y Z