Song name
# A B C D E F G H I J K L M N O P Q R S T U V W X Y Z

Kim Taylor - Baby I Need You tab

Tutorial for Baby I Need You: http://www.youtube.com/watch?v=ImktoRew3c8
  Hopefully you find this tab helpful, If so feel free to rate it.

      C    F    Am         
e|-0--0--0-| 
B|-1--1--1-|    
G|-2--2--2-|    
D|-0--3--2-|    
A|-3--x--0-|    
E|-x--x--x-|   

 
VERSE1
Into:
|----------------------------------------------|
|----------------------------------------------|
|------------------------0h2--0h2--0h2--0------| 2X
|---0h2--0h2--0h2--0---3----3----3----3--------|
|-3----3----3----3-----------------------------|
|----------------------------------------------|

Verse 1:
|----------------------------------------------|
|----------------------------------------------|
|------------------------0h2--0h2--0h2--0------| 2X
|---0h2--0h2--0h2--0---3----3----3----3--------|
|-3----3----3----3-----------------------------|
|----------------------------------------------|

|----------------------------------------------|
|-----1----1-----1----1----0h2--0h2--0h2--0----|
|--2----2-----2----2---------------------------| 2X
|----2----2-----2----2---3----3----3----3------|
|-0----0-----0----0----------------------------|
|----------------------------------------------|

Repeat Into:
|----------------------------------------------|
|----------------------------------------------|
|------------------------0h2--0h2--0h2--0------| 2X
|---0h2--0h2--0h2--0---3----3----3----3--------|
|-3----3----3----3-----------------------------|
|----------------------------------------------|

Verse 2:
|----------------------------------------------|
|----------------------------------------------|
|------------------------0h2--0h2--0h2--0------| 2X
|---0h2--0h2--0h2--0---3----3----3----3--------|
|-3----3----3----3-----------------------------|
|----------------------------------------------|

|----------------------------------------------|
|-----1----1-----1----1----0h2--0h2--0h2--0----|
|--2----2-----2----2---------------------------| 2X
|----2----2-----2----2---3----3----3----3------|
|-0----0-----0----0----------------------------|
|----------------------------------------------|

Instrumental:
|----------------------------------------------|
|----------------------------------------------|
|------------------------0h2--0h2--0h2--0------| 2X
|---0h2--0h2--0h2--0---3----3----3----3--------|
|-3----3----3----3-----------------------------|
|----------------------------------------------|

|----------------------------------------------|
|-----1----1-----1----1----0h2--0h2--0h2--0----|
|--2----2-----2----2---------------------------| 2X
|----2----2-----2----2---3----3----3----3------|
|-0----0-----0----0----------------------------|
|----------------------------------------------|

Verse 3:
|----------------------------------------------|
|----------------------------------------------|
|------------------------0h2--0h2--0h2--0------| 2X
|---0h2--0h2--0h2--0---3----3----3----3--------|
|-3----3----3----3-----------------------------|
|----------------------------------------------|

|----------------------------------------------|
|-----1----1-----1----1----0h2--0h2--0h2--0----|
|--2----2-----2----2---------------------------| 2X 
|----2----2-----2----2---3----3----3----3------|
|-0----0-----0----0----------------------------|
|----------------------------------------------|

|-------0-----|
|-----1-------|
|---0---------| 
|-------------|
|--3----------|
|-------------|
Tap to rate this tab
# A B C D E F G H I J K L M N O P Q R S T U V W X Y Z