Song name
# A B C D E F G H I J K L M N O P Q R S T U V W X Y Z

Kim Walker - I Have Found tab

Email:dirtbikr_88@hotmail.com
Key:C (I think)

The amount to play notes is not given.
Just listen to the song and work out the rhythm with some parts.

Intro:C,E,G,D(palm mute entire time)
e|-------------------------------------------------------------------------|
B|-------------------------------------------------------------------------|
G|----------0--------0--------2--------------------------------------------|
D|--2-------2--------0--------0--------------------------------------------|
A|--3----------------------------------------------------------------------|
E|-------------------------------------------------------------------------|

Refereded to as (1):
  Slide in between notes
e|-------------------------------------------------------------------------|
B|-------------------------------------------------------------------------|
G|--------9----7----4---------9----7----4----7-----------------------------|
D|-------------------------------------------------------------------------|
A|-------------------------------------------------------------------------|
E|-------------------------------------------------------------------------|

Verse:same as intro

(1)

Verse

Chorus:C,D,E
just play power chords

(1)

Verse

Chorus

Bridge:C,G,E,C,G,E
play around 5x during the: only you fill.....

Chorusx2 maybe just listen

Bridge:can play somthing like this insted of chords again
e|-------------------------------------------------------------------------|
B|-------------------------------------------------------------------------|
G|----7----9-----7------4--------------------------------------------------|
D|-------------------------------------------------------------------------|
A|-------------------------------------------------------------------------|
E|-------------------------------------------------------------------------|
Use some Vibrato

Then run through the Chorus a couple times to end.


Tap to rate this tab
 
# A B C D E F G H I J K L M N O P Q R S T U V W X Y Z