Guitaretab - guitar tabs
Song name
# A B C D E F G H I J K L M N O P Q R S T U V W X Y Z

Kim Walker - Where You Go I Go tab

Email:dirtbikr_88@hotmail.com
Key:Dm

i,VII,iv,iv

Chords:Dm,C,Gm,Gm- throughout whole song, mostly

notes:C,D,E,F,G,A,Bb

Dm:D,F,Bb
C:C,E,G
G:G,Bb,E



Intro:
   note-slide from C up to the D then all the way down to the G
e|------------------------------------------------------------------------|
B|---15---13---15---8-----------------------------------------------------|
G|---14---12---14---7-----------------------------------------------------|
D|---12---10---12---5-----------------------------------------------------|
A|------------------------------------------------------------------------|
E|------------------------------------------------------------------------|



[ Tab from: http://www.guitaretab.com/k/kim-walker/212008.html ]
Verse:just slide dm chord formation
e|--1---0---6---6---------------------------------------------------------|
B|--3---1---8---8---------------------------------------------------------|
G|--2---0---7---7---------------------------------------------------------|
D|------------------------------------------------------------------------|
A|------------------------------------------------------------------------|
E|------------------------------------------------------------------------|

play this on last run through the verse, only differnce is an A 
e|--1---0---6---8---------------------------------------------------------|
B|--3---1---8---10--------------------------------------------------------|
G|--2---0---7---9---------------------------------------------------------|
D|------------------------------------------------------------------------|
A|------------------------------------------------------------------------|
E|------------------------------------------------------------------------|




Chorus:basic power chords-D,C,G
e|------------------------------------------------------------------------|
B|----------8-------------------------------------------------------------|
G|--7---5---7-------------------------------------------------------------|
D|--7---5---5-------------------------------------------------------------|
A|--5---3-----------------------------------------------------------------|
E|------------------------------------------------------------------------|
Related for Where You Go I Go tab
Where You Go I Go chords by Kim Walker