Song name
# A B C D E F G H I J K L M N O P Q R S T U V W X Y Z

Kim Walker - Sing My Love tab

Kim Walker/Jesus Culture
Sing my Love
From "Your love never fails"

Intro: 
C, F, Am, G, C

Verse 1:
C
Words can never say the way He says my name
F
He calls me lovely
C
No one ever sees the way He looks at me
F
He sees me holy
Am
Words can never hold this love that burns my soul
C      G     Am   C      G      Am
Heaven holds me, heaven holds me


Chorus x2
C
Cant hold my love back from you
  F
I Cant hold my love back from you
        Am            G/B            C   
I gotta sing I gotta sing, sing my love to you Jesus


Verse 2:
You will not believe the way He touches me
He burns right through me
And I could not forget every word He said
He always knew me
The earth could never hold this love that burns my soul
Heaven holds me, heaven holds me


Chorus x2
Verse 2
Chorus x2


Solo: F, Am, G, C


Chorus x2


Bridge x2
C
I can't hold my praise back from You
F
I can't hold my praise back from You
         Am            G                 C
I gotta shout I gotta shout, shout my praise


Solo 2: C, F, Am, G


Tag:
C                F
Praise the Lord! Praise the Lord
          Am               G             C
My soul makes, makes it's boast, in the Lord


Chorus x1


To change up the sound a little, you could have one guitar playing in 
Capo 5 in the G position...


Lead Guitar parts
Intro (slide)
e|---------------------------------------------------------------------|
B|---------------------------------------------------------------------|
G|--5>>>7~~~~--7<<<<5~~~~----------------------------------------------|
D|---------------------------------------------------------------------|
A|---------------------------------------------------------------------|
E|---------------------------------------------------------------------|


Verse 1 (slide on Am)
e|---------------------------------------------------------------------|
B|---------------------------------------------------------------------|
G|--2>>>5~~~~----------------------------------------------------------|
D|---------------------------------------------------------------------|
A|---------------------------------------------------------------------|
E|---------------------------------------------------------------------|


Verse 2 (slide on Am)
e|---------------------------------------------------------------------|
B|---------------------------------------------------------------------|
G|--5>>>9~~~~----------------------------------------------------------|
D|---------------------------------------------------------------------|
A|---------------------------------------------------------------------|
E|---------------------------------------------------------------------|


Solo 1
e|-------8-7-----------------------------------------------------------|
B|--10-------10-8-5----6-5---------------------8-----------------------|
G|-------------------------7-5-7------5-7-7>>9----9-7-5----------------|
D|---------------------------------------------------------------------|
A|---------------------------------------------------------------------|
E|---------------------------------------------------------------------|


e|-------8-7-------------------------------------7------8--------------|
B|--10-------10-8-5----6-5---------------------8---8-------------------|
G|-------------------------7-5-7------5-7-7>>9-------9-----------------|
D|---------------------------------------------------------------------|
A|---------------------------------------------------------------------|
E|---------------------------------------------------------------------|


Outro solo is played in this scale. Listen for it. Really easy
e|-------------------8-10-12-------------------------------------------|
B|--------------8-10---------12-13-------------------------------------|
G|---5-7----7-9--------------------------------------------------------|
D|-7------9------------------------------------------------------------|
A|---------------------------------------------------------------------|
E|---------------------------------------------------------------------|


Chad Miller 
http://www.freetoliveforyou.blogspot.com/
Tap to rate this tab
 
# A B C D E F G H I J K L M N O P Q R S T U V W X Y Z