Song name
# A B C D E F G H I J K L M N O P Q R S T U V W X Y Z

Kim Walker - How He Loves Us tab

-------------------------------------------------------------------------------
                             How He loves us - Kim Walker
-------------------------------------------------------------------------------
Tabbed by: Rush Pfeiffer
E-mail: zombieburgers@yahoo.com
Email me if you have any questions, I don't check my ultimate-guitar.

Tuning: Standard (EADGBe)

I used this video for tabbing it --> http://youtu.be/JoC1ec-lYps

Intro, All Verses and First Chorus. (These same chords are just strummed later instead 
of picked)

e|-----0-------0-------0-------0-------0-------0-------0-------0-----------|
B|-------7------7--------7-------7-------7-------7-------7-------7---------|
G|---0-------0-------0-------0-------0-------0-------0-------0-------------|
D|-------------------------------------------------------------------------|
A|-9-------9-------9-------9-------0-------0-------0-------0---------------|
E|-------------------------------------------------------------------------|

e|------9--------9--------9--------9-------0-------0-------0-------0-------|
B|--------9--------9--------9--------9-------7-------7-------7-------7-----|
G|----0--------0--------0--------0-------0-------0-------0-------0---------|
D|-------------------------------------------------------------------------|
A|-11-------11-------11-------11-------0-------0-------0-------0-----------|
E|-------------------------------------------------------------------------|


Chords played during all choruses after first.

(Chord names below were named as if there were no capo, they are open forms)

     C                  Am                 G                  F
  He Loves us oh how He loves us oh how He loves us oh how He loves

e|---0------------------0------------------9------------------0-------|
B|---7------------------7------------------9------------------7-------|
G|---0------------------8------------------0------------------8-------|
D|---8------------------8------------------0------------------9-------|
A|---9------------------0------------------8------------------0-------|
E|---x------------------x------------------9------------------x-------|

     C                                        Am
     We are His portion, and He is our prize. Drawn to redemtion by the grace in His eyes

e|---0----------------------------------------0----------------------|
B|---7----------------------------------------7----------------------|
G|---0----------------------------------------8----------------------|
D|---8----------------------------------------8----------------------|
A|---9----------------------------------------0----------------------|
E|---x----------------------------------------x----------------------|

     G                           F
  If Grace is an ocean we're all sinking

e|---9---------------------------0------------------------------------|
B|---9---------------------------7------------------------------------|
G|---0---------------------------8------------------------------------|
D|---0---------------------------9------------------------------------|
A|---8---------------------------0------------------------------------|
E|---9---------------------------x------------------------------------|

Then just repeat these chords during the heavy parts of the song and use the plucking 
during softer parts. Pretty simple.

You can also just put the capo where ever you like and just transpose to fit whatever 
key you sing best in. I only used capo 6 because that's what capo they were on in the live 
at Chicago video on Youtube.

************************************

| /   slide up
| \   slide down
| h   hammer-on
| p   pull-off
| ~   vibrato
| +   harmonic
| x   Mute note
| b   Bend
| pb  Pre-bend
| br  Bend release
| pbr Pre-bend release
| brb Bend release bend

************************************
Tap to rate this tab
# A B C D E F G H I J K L M N O P Q R S T U V W X Y Z