Guitaretab - guitar tabs
Song name
# A B C D E F G H I J K L M N O P Q R S T U V W X Y Z

Kim Wilde - Kids In America tab

Kids In America – Kim Wilde

I had to figure out this song as I'm playing guitar for my school show "Back to the 
Very easy! Contact me at: rattlehead.coolio@hotmail.com

(most of the song is palm muted!)
Intro: synth!

Verse riff:
e|-----------------------------------|
B|-----------------------------------|
G|-----------------------------------|
D|-4-etc----etc----etc----etc----etc-|
A|-2------7------5------7------2-----|
E|--------5------3------5------0-----|
[ Tab from: http://www.guitaretab.com/k/kim-wilde/151395.html ]
Chorus:
e|-------------------------------------------------------|
A|-------------------------------------------------------|
D|-------------------------------------------------------|
G|---etc----etc----etc----etc----etc---etc----etc----etc-|
B|-2------4------5------7------5-----7------5------7-----|
E|-0------2------3------5------3-----5------3------5-----|
Verse then chorus
“Na,na,na....”:
e|------------------------------------------------------------------------------------|
A|------------------------------------------------------------------------------------|
D|------------------------------------------------------------------------------------|
G|-4-4--6--7---------6--9--7--6--4-4---4-4--6--7---------6--9--7--6--4--7--6--4----2--|
B|-2-2--4--5--7--4---4--7--5--4--2-2---2-2--4--5--7--4---4--7--5--4--2--5--4--2----0--|
E|------------5--2--------------------------------5--2--------------------------------|
Verse then chorus then “na na na”
Outro:
e|-----------------------------|
A|-----------------------------|
D|---etc-----------------------|
G|-4--------etc----etc----etc--|
B|-2------5------7------6------|
E|--------3------5------4------|End
Related for Kids In America tab
Kids In America chords by Kim Wilde