Song name
# A B C D E F G H I J K L M N O P Q R S T U V W X Y Z

Kim - Wolfsherz tab

-------------------------------------------------------------------------------
			     Wolfsherz - KIM?
-------------------------------------------------------------------------------
Tabbed by: cryptic-gandfather.myspace.com
Email:cryptic.infection@web.de

Tuning: standart


e|---------------------------------------------------------------------------|
B|---------------------------------------------------------------------------|
G|---------------5-3-------------------------8-7-3-5-3-----------------------|
D|-6-6-,-,-,-,-5-5-3-,-,-,-,-3-6-6-,-,-,-,-5-8-7-3-5-3-----------------------|
A|-6-6-,-,-,-,-5-3-3-,-,-,-,-3-6-6-,-,-,-,-5-6-5-1-3-1---------------------- |
E|-4-4-,-,-,-,-3-1-4-,-,-,-,-1-4-4-,-,-,-,-3---------------------------------|

e|---------------------------------------------------------------------------|
B|---------------------------------------------------------------------------|
G|---------------5-3-------------------------8-7-3-5-3-----------------------|
D|-6-6-,-,-,-,-5-5-3-,-,-,-,-3-6-6-,-,-,-,-5-8-7-3-5-3-----------------------|
A|-6-6-,-,-,-,-5-3-3-,-,-,-,-3-6-6-,-,-,-,-5-6-5-1-3-1---------------------- |
E|-4-4-,-,-,-,-3-1-4-,-,-,-,-1-4-4-,-,-,-,-3---------------------------------|

e|---------------------------------------------------------------------------|
B|---------------------------------------------------------------------------|
G|---------------5-3-------------------------8-7-3-5-3-----------------------|
D|-6-6-,-,-,-,-5-5-3-,-,-,-,-3-6-6-,-,-,-,-5-8-7-3-5-3-----------------------|
A|-6-6-,-,-,-,-5-3-3-,-,-,-,-3-6-6-,-,-,-,-5-6-5-1-3-1---------------------- |
E|-4-4-,-,-,-,-3-1-4-,-,-,-,-1-4-4-,-,-,-,-3---------------------------------|

e|---------------------------------------------------------------------------|
B|---------------------------------------------------------------------------|
G|---------------5-3-------------------------8-7-3-5-3-----------------------|
D|-6-6-,-,-,-,-5-5-3-,-,-,-,-3-6-6-,-,-,-,-5-8-7-3-5-3-----------------------|
A|-6-6-,-,-,-,-5-3-3-,-,-,-,-3-6-6-,-,-,-,-5-6-5-1-3-1---------------------- |
E|-4-4-,-,-,-,-3-1-4-,-,-,-,-1-4-4-,-,-,-,-3---------------------------------|
Refain:

e|---------------------------------------------------------------------------|
B|---------------------------------------------------------------------------|
G|-----------------5-5-5-5-5-5-8-8-------------------------------------------|
D|-6-6-6-6-6-6-6-5-5-5-5-5-5-5-8-8-------------------------------------------|
A|-6-6-6-6-6-6-6-5-3-3-3-3-3-3-6-6-------------------------------------------|
E|-4-4-4-4-4-4-4-3-----------------------------------------------------------|

e|---------------------------------------------------------------------------|
B|---------------------------------------------------------------------------|
G|-----------------5-5-5-5-5-5-8-8-------------------------------------------|
D|-6-6-6-6-6-6-6-5-5-5-5-5-5-5-8-8-------------------------------------------|
A|-6-6-6-6-6-6-6-5-3-3-3-3-3-3-6-6-------------------------------------------|
E|-4-4-4-4-4-4-4-3-----------------------------------------------------------|

e|---------------------------------------------------------------------------|
B|---------------------------------------------------------------------------|
G|-----------------5-5-5-5-5-5-8-8-------------------------------------------|
D|-6-6-6-6-6-6-6-5-5-5-5-5-5-5-8-8-------------------------------------------|
A|-6-6-6-6-6-6-6-5-3-3-3-3-3-3-6-6-------------------------------------------|
E|-4-4-4-4-4-4-4-3-----------------------------------------------------------|


| ,  "nothing"
| \  slide down
| h  hammer-on
| p  pull-off
| ~  vibrato
| +  harmonic
| x  Mute note
===============================================================================
Tap to rate this tab
 
# A B C D E F G H I J K L M N O P Q R S T U V W X Y Z