Song name
# A B C D E F G H I J K L M N O P Q R S T U V W X Y Z

Kimberley Chen - Ai Ni tab

My first time tabbing out a song, since nothing else on the web was satisfactory. 
This is pretty much as close to the original as my ears can hear =D

INTRO
 A         F#m7sus4  D         E
|-----0---|---------|-----2---|-------0---|
|-----2---|-----0---|-----3---|-------0---|
|---2-----|-----2---|---2-----|-----------|
|---------|---2-----|-0-----0-|---4/6-----|
|-0-----0-|---------|---------|-----------|
|---------|-2-----2-|---------|-0-------0-|


VERSE 1
 A         F#m7sus4  D         Dm/E      A         F#m7sus4  D         E
|-----0---|---------|-----2---|-1---0---|-----0---|---------|-----2---|-------0---|
|-----2---|-----0---|-----3---|-3-----3-|-----2---|-----0---|-----3---|-------0---|
|---2-----|-----2---|---2-----|---2-----|---2-----|-----2---|---2-----|-----------|
|---------|---2-----|-0-----0-|---------|---------|---2-----|-0-----0-|---4/6-----|
|-0-----0-|---------|---------|---------|-0-----0-|---------|---------|-----------|
|---------|-2-----2-|---------|-0-------|---------|-2-----2-|---------|-0-------0-| x2

 A         A    G#
|-----0---|-5~----|
|-----2---|-5~----|
|---2---2-|-------|
|---------|-------|
|-0-------|---0---|
|---------|-----4-|


CHORUS
 F#m7      D2        A         E
|-----0---|-----0---|---------|-------0-|
|-----2---|-----3---|-----2---|-------0-|
|---2-----|---2-----|-----2---|---------|
|---------|-0-----0-|---2-----|---4/6---|
|---------|---------|-0-----0-|---------|
|-2-----2-|---------|---------|-0-------| x3

 Bm7       C#m7      D         E
|---------|---------|---------|-7~------|
|-----3---|-----5---|-----7---|-9~------|
|-----2---|-----4---|-----7---|-9~------|
|---4-----|---6-----|---7-----|-9~------|
|-2-----2-|-4-----4-|-5-----5-|-7~------|
|---------|---------|---------|---------|

A F#m7 D D/E
A F#m7 D E


VERSE 2

A F#m7 D D/E
A F#m7 D E
A


CHORUS

F#m7 D2 A E x3
Bm7 C#m7 D E


BRIDGE

D A Bm7 A (Bm7 A/C# E)
D A Bm7 E

CHORUS

F#m7 D2 A E x3
Bm7 C#m7 D E x2

 A
|-------0~|
|-----2-0~|
|---2-----|
|---------|
|-0-------|
|---------|

[Kimberley's official Facebook page: https://www.facebook.com/heyitskimberley]
Tap to rate this tab
# A B C D E F G H I J K L M N O P Q R S T U V W X Y Z