Song name
# A B C D E F G H I J K L M N O P Q R S T U V W X Y Z

Kimberley Chen - Ai Ni tab

NOTE: Before you start learning the tabs for this, just a side note that this is a 
SIMPLE-yet-QUITE-accurate tabing for this song.
I know there is another version of this song and they're probably more accurate 
than this (if you hate simple-ish tabs, check out the 1st version)

This is NOT my work; credits go to Ma Shushu on Youtube.
http://youtu.be/Yr9NQvpD-ww

Enjoy!
Rate, comment, favourite! :-)
*******************************************************************************
Standard Tuning

INTRO:

|---------|---------|---------|-----------|
|-----0---|-----0---|-----3---|------5----|
|---2---2-|---------|---2---2-|-----------|
|---------|---2---2-|-0-------|---4/6---6-|
|-0-------|---------|---------|-----------|
|---------|-2-------|---------|-0---------|


VERSE 1:

Wo bi shang yan jing...
|---------|---------|---------|---1----0--|
|-----0---|-----0---|-----3---|---3-------|
|---2---2-|---------|---2---2-|-----------|
|---------|---2---2-|-0-------|---0-------|
|-0-------|---------|---------|-----------|
|---------|-2-------|---------|-----------|

Er ci ke di qiu...

|---------|---------|---------|-----------|
|-----0---|-----0---|-----3---|------5----|
|---2---2-|---------|---2---2-|-----------|
|---------|---2---2-|-0-------|---4/6---6-|
|-0-------|---------|---------|-----------|
|---------|-2-------|---------|-0---------|

Ni wei xiao de chun...
|---------|---------|---------|---1----0--|
|-----0---|-----0---|-----3---|---3-------|
|---2---2-|---------|---2---2-|-----------|
|---------|---2---2-|-0-------|---0-------|
|-0-------|---------|---------|-----------|
|---------|-2-------|---------|-----------|

Mei yi miao chu wen...
|---------|---------|---------|-----------|
|-----0---|-----0---|-----3---|------5----|
|---2---2-|---------|---2---2-|-----------|
|---------|---2---2-|-0-------|---4/6---6-|
|-0-------|---------|---------|-----------|
|---------|-2-------|---------|-0---------|

Ni.... 
                A         E
|---------|---------|---------|
|-----0---|----2----|-----0---|
|---2---2-|----2----|-----1---|
|---------|----2----|-----2---|
|-0-------|----0----|-----2---|
|---------|---------|---------|


CHORUS:

Jiu zhe yang ai ni...

          (D position) (A p.)
|---------|----2----|---------|-----------|
|-----2---|--3---3--|-----2---|------5----|
|---2---2-|---------|---2---2-|-----------|    (x3)
|---------|-0-------|-0-------|---4/6---6-|
|---------|---------|---------|-----------|
|-2-------|---------|---------|-0---------|

Mei hao ai qing...

  (Bm p.)   (C#m p.)   (D p.)  (E p. / strum once)
|---------|---------|-----2---|-----------|
|-----3---|-----5---|---3---3-|-----------|
|---4---4-|---6---6-|---------|----1------|
|---------|---------|-0-------|----2------|
|-2-------|-4-------|---------|----2------|
|---------|---------|---------|-----------|

INTRO /x2:

1. Same except last bar is 
|---1----0--|
|---3-------|
|-----------|
|---0-------|
|-----------|
|-----------|

2. Exactly like intro.



VERSE 2: Exactly verse 1


CHORUS; then

Nii....     Ooohhh~
|---------|
|-----0---|
|---2---2-|
|---------| (x2)
|-0-------|
|---------|



BRIDGE:

Oh~ Xiang bian cheng...

    (D p.)            (A p.)           (Bm p.)           (A p.) Ohhh~
|-----2------2---|----------------|-----------------|----------------|
|---3---3--3---3-|----2-------2---|-----3-------3---|----2-------2---|
|---------0------|--2---2---2---2-|---4---4---4---4-|--2---2---2---2-|
|--0-------------|--------0-------|---------4-------|--------2-------|
|----------------|-0--------------|-2---------------|-0--------------|
|----------------|----------------|-----------------|----------------|

Oh~ Hao hao kan kan...

   (D p.)          (A p.)            (Bm p.)        (C#m p.)(E p./strum 1ce)
|-----2------2---|----------------|-----------------|--------|--------|
|---3---3--3---3-|----2-------2---|-----3-------3---|----5---|--------|
|---------0------|--2---2---2---2-|---4---4---4---4-|--6---6-|---1----|
|--0-------------|--------2-------|---------4-------|--------|---2----|
|----------------|-0--------------|-2---------------|-4------|---2----|
|----------------|----------------|-----------------|--------|--------|


CHORUS: Can strum or continue picking.


"Ni..." part is repeated twice.


'OUTRO':

zui mei li....            
          (Strum once)
|---------|--0-----|
|-----0---|--0-----|
|---2---2-|--2-----|
|---------|--------|
|-0-------|--------|
|---------|--------|

**********************************END****************************************
Tap to rate this tab
 
# A B C D E F G H I J K L M N O P Q R S T U V W X Y Z