Song name
# A B C D E F G H I J K L M N O P Q R S T U V W X Y Z

Kimbra - Somebody Please tab

:WARNING:
this is MY interpretation of this song.
based on a live version.
if you want to complain about how inaccurate it is, don't bother.
it's MY interpretation.
________________________________________
Key:
/ OR \ = slide
   ~   = vibrato
________________________________________


intro

e|-----------------|
B|----4~-----------|
G|-----------------|
D|-----------------|
A|-----------------|
E|-----------------|


e|---------------------------------------------------------------|
B|----4---------------------4--------------3/4--4----------------|
G|----4---------7-----------4---------7----3/4--4---------7------|
D|----4---------7-----------4---------7----3/4--4---------7------|
A|-------2---6-----------------2---6-------x-x-----2---6---------|
E|-4-----------------3---4-----------------3/4-------------------|


e|------------------------------|
B|--------4---------------------|
G|--------4---------------------|
D|--------4---------------------|
A|-----------2---6~-------------|
E|-3---4------------------------|

verse

e|-------------------------------------------------------------------|
B|----4---------------------4---------------------4------------------|
G|----4---------7-----------4---------7-----------4---------7--------|
D|----4---------7-----------4---------7-----------4---------7--------|
A|-------2---6-----------------2---6-----------------2---6-----------|
E|-4-----------------3---4-----------------3---4---------------------|


e|------------------------------|
B|--------4---------------------|
G|--------4---------------------|
D|--------4---------------------|
A|-----------2---6~-------------|
E|-3---4------------------------|


will update at a later date soon...
Tap to rate this tab
# A B C D E F G H I J K L M N O P Q R S T U V W X Y Z