Guitaretab - guitar tabs
Song name
# A B C D E F G H I J K L M N O P Q R S T U V W X Y Z

Kimya Dawson - Underground tab

http://www.youtube.com/watch?v=4cFg6pUXrrI
It's easy and beautiful. It's 3/4.
Da capo 2nd fret.

I don't know if it's OK the C maj7 and the F add9 chord. But I think it's almost perfect :)


Verse
 
   C x2          Cmaj7 x2      Am x2         Fadd9  x2   (relative to da capo)

e|---0-0---0-0-----0-0---0-0-----0-0---0-0-----1-1---1-1-|
B|---1-1---1-1-----1-1---1-1-----1-1---1-1-----1-1---1-1-|
G|---0-0---0-0-----0-0---0-0-----2-2---2-2-----2-2---2-2-|
D|---2-2---2-2-----2-2---2-2-----2-2---2-2-----3-3---3-3-|
A|-3-----3-------2-----2-------0-----0-------------------|
E|-------------------------------------------3-----3-----|

The only Bridge it changes it's at the end of the second verse before the third.


Bridge

   C      Cmaj7  Am   Fadd9 

e|---0-0---0-0---0-0---1-1-|
B|---1-1---1-1---1-1---1-1-|
G|---0-0---0-0---2-2---2-2-|
D|---2-2---2-2---2-2---3-3-|
A|-3----- 2-----0----------|
E|-------------------3-----|

Chorus

   C      Cmaj7 Am
e|---0-0---0-0---0-0----0-0----0-0----0-0-|
B|---1-1---1-1---1-1----1-1----1-1----1-1-|
G|---0-0---0-0---2-2----2-2----2-2----2-2-|
D|---2-2---2-2---2-2----2-2----2-2----2-2-| X5
A|-3----- 2-----0-----0------0------0-----|
E|----------------------------------------|

   Fadd9 
e|---1-1---1-1----1-1---1-1-|
B|---1-1---1-1----1-1---1-1-|
G|---2-2---2-2----2-2---2-2-|
D|---3-3---3-3----3-3---3-3-|
A|--------------------------|
E|-3-----3------3-----3-----|

   C      Cmaj7 Am   Fadd9 
e|---0-0---0-0---0-0---1-1-|
B|---1-1---1-1---1-1---1-1-|
G|---0-0---0-0---2-2---2-2-| X2
D|---2-2---2-2---2-2---3-3-|
A|-3----- 2-----0----------|
E|-------------------3-----|






C                     Cmaj7
my head is pounding I can't stop the pounding
  Am                     Fadd9 
I think it is going to explode
[ Tab from: http://www.guitaretab.com/k/kimya-dawson/175739.html ]
and kill everybody who's in close proximity to the place I call my home
and they'll make a moving made for tv movie for Life Time all about my life
that ends with an epitaph one that will make you laugh
that says "great mom okay wife"
at it'll be funny to the people who know me
who know if my body's not burned
my soul will spend an eternity in misery
teathered and bound to this earth
so I'm not a dick or a stick in the mud always ruining things for my friends
I mustn't forget when I see the sun set that tomorrow it will rise again

     C        Cmaj7        Am
so I tatoo instructions on my ass
          C          Cmaj7      Am
that say "don't ever put this body is a casket
C           Cmaj7      Am
burn it and put the ashes in a basket
    C          Cmaj7  Am
and throw them in the Puget Sound
  C          Cmaj7   Am              Fadd9 
I don't ever want to be underground"
   C  Cmaj7  Am  Fadd9 
oh noooooooo 
C  Cmaj7 Am Fadd9 
oh nooooooooo


(Bridge)

C         Cmaj7         Am         Fadd9 
I wearing size thirteen basketball shoes
    C             Cmaj7
and laugh at your fishnets
    Am              Fadd9 
I'm freaked out and fucked up

and I'm standing alone in an alley with you
wanting to show you a cure for your hiccups
but instead I close my eyes
the needles are numbered so I'm writing you letters
and I cannot disguise the fact that I'm nervous when we are together
and so I fantasize
that the nights will get shorter and the days will get better
I feel a kick inside and decide
if this is a girl I'm naming her Heather
she'll look just like you but her hair will be feathered
       C           Cmaj7       Am       Fadd9        Fadd9 
she'll say how you died before you ever met her
    C           Cmaj7   Am  Fadd9 
her hair will be feathered


(Bridge)

C                     Cmaj7
my head is pounding I can't stop the pounding
  Am                     Fadd9 
I think it is going to explode
there are plus and minuses to sinuitus
like sometimes I get to go home
but mostly it hurts so bad I think I'm dying
I just blew my nose and now I feel like crying
and the dreams that I have are all of my past lives
and the seizures would parylize me in the night
and I wake up clutching my teddy bear tight
I'm drooling and trying to turn on the light
all I can do is hold fast and sit tight
but what if they forget 'cause you know they just might

so I tatoo instructions on my ass
that say "don't ever put this body is a casket
burn it and put the ashes in a basket
and throw them in the Puget Sound
I don't ever want to be underground"
oh no, oh nooooo



Tabbed by Naka

This is my first tab, I started because I'm fed up of bad tabs (no offense)
Related for Underground tab
Advertisement will be closed in 10 seconds