Kimya Dawson - Sleep tab

KIMYA DAWSON _SLEEP_
Helpful: Capo on 5th fret (these tabs are written as if 5th fret is open: because of capo)

Required: have a skilled pinky

--LEAD GUITAR--
e|--5-5-5-4-4-4-5-5-5-4-4-4-5-5-5-4-4-4-2-2-2-4-4-4---------------|
b|------------------------------------------------5---------------|
G|----------4-----------4-----------4-------2---4-----------------|
D|------2-2---2-----2-2---2-----2-2---2-0-4---2-------------------|
A|--0-4---------0-4---------0-4-----------------------------------|
E|----------------------------------------------------------------|

--Vocals--
e|----------------------------------------------|
b|----------------------------------------------|
G|----------------------------------------------|
D|------2-2--------2-2--------2-2----0----------|
A|--0-4 --------0-4--------0-4---------4-0-2----|
E|----------------------------------------------|

Tabs by Gage Peterson
-EukalaSaurusRex-
Tap to rate this tab
 
# A B C D E F G H I J K L M N O P Q R S T U V W X Y Z