Song name
# A B C D E F G H I J K L M N O P Q R S T U V W X Y Z

Kina Grannis - Valentine tab

Hey guys! This is my first tab, so take it easy!
Standard Tuning EADGBe
Right handed
Chords used:

A: x02220
E: x12200
F#m: 244222 (or what I prefer to use: 2xx222)
D: x00232

    A
e|----0--------|
G|----2---2----|
B|----2------2-|  (2x in verse, once in chorus)
D|-------------|
A|--0-----0----|
E|-------------|

    E
e|------0--------|
G|------0---2----|
B|------1------1-|  (2x in verse, once in chorus)
D|---------------|
A|--0-2-----2----|
E|---------------|

    F#m
e|------2--------|
G|------2---2----|
B|------2------2-|  (2x in verse, once in chorus)
D|---------------|
A|---------------|
E|--0-2-----2----|

    D
e|------2--------|----------2-|
G|------3---3----|--------3---|
B|------2------2-|------2-----|  (both halves in verse, first half in chorus)
D|---------------|----0-------|
A|--0-0-----0----|--0---------|
E|---------------|------------|

Lyrics:

(verse)
love, it's a special day.
we should celebrate
and appreciate
that you and me found something pretty neat
and i know some say this day is arbitrary

(chorus)
but it's a good excuse to put our love to use
baby i know what to do, baby i will love you
i'll love you, i'll love you.

(verse)
love, i don't need those things
i don't need no ring
i don't need anything
but you with me, cause in your company
i feel happy oh so happy and complete

(chorus)
and it's a good excuse to put our love to use
baby i know what to do, baby i will love you
i'll love you, i'll love you.

so wont you be my honey bee
giving me kisses all the time
be mine, be my valentine

so wont you be my honey bee
giving sweet kisses all the time
be mine, be my valentine 

Tap to rate this tab
 
# A B C D E F G H I J K L M N O P Q R S T U V W X Y Z