Song name
# A B C D E F G H I J K L M N O P Q R S T U V W X Y Z

Kina Grannis - Stay Just A Little tab

Stay Just A Little
Song Written By: Kina Grannis
Tab By: David Zehr

http://www.youtube.com/watch?v=yocWxAA_OZs


Capo on First Fret, all tabs are relative to the Capo

Intro:

e|-0-----------------------------------------------------------------|
B|---1---1------0-------------------0------1------0------------------|
G|----------0------0---2-0--0-----------------0----------------------|
D|------------------------------0------0-------------0---0-----------|
A|-3---3------3------3-----------------------------------------------|
E|----------------------------3---3------3------3------3-------------|


e|-0-----------------------------------------------------------------|
B|---1---1------0-----------3-------3-------------3------------------|
G|----------0------0---2-0--------2----2-------------2---------------|
D|------------------------------0---------0---0--------0-------------|
A|-3---3------3------3-----------------------------------------------|
E|----------------------------3-------------3---3--------------------|


e|-0-----------------------------------------------------------------|
B|---1---1------0-----------3-------3--------------------------------|
G|----------0------0---2-0--------2----2-----------------------------|
D|------------------------------0------------------------------------|
A|-3---3------3------3-----------------------------------------------|
E|----------------------------3----------0---------------------------|


e|-0-----------------------------------------------------------------|
B|---1---1------0-----------3-------3-------------3------------------|
G|----------0------0---2-0--------2----2-------------2---------------|
D|------------------------------0---------0---0--------0-------------|
A|-3---3------3------3-----------------------------------------------|
E|----------------------------3-------------3---3--------------------|
                              |start to slow down here|

I'm working on the Verse now, when I have more time I'll finish it up and post it
Tap to rate this tab
# A B C D E F G H I J K L M N O P Q R S T U V W X Y Z