Song name
# A B C D E F G H I J K L M N O P Q R S T U V W X Y Z

Kina Grannis - Please Remember tab

You can see how I've played it at: http://www.youtube.com/watch?v=VUInI4yrD8Y
Thanks!

Intro: (x4)
|----------------------------------------------|
|------0------0-------------0--------0h-1--0---|
|---------2---2h0--0-----------0---------------|
|----0------0-------------0-------0------------|
|-----------------------2------3---------------|
|--3------2------------------------------------|

Verses:
|-------------------------|
|------0-----------0------|
|---------2-----------0---|
|----0-----------0--------|
|------------0-1------3---|
|--3------2---------------|

Chorus:
|---------------------------|--------------------------------------------|
|---------------------------|-------0---------------0--------------------|
|------0---0---------2---2--|-----0-----0---------0-----0----------2--2--|
|----2-----2-------0-----0--|--------------0--------------0------0----0--|
|---------------------------|-0-3-------------0-3------------------------|
|--0-------0---0-1-------1--|-----------3---------------3----0-1------1--|

(back to intro)
Tap to rate this tab
 
# A B C D E F G H I J K L M N O P Q R S T U V W X Y Z