Kina Grannis - Valentine tab

---------------------------------------------------------------------------
                          Valentine-Kina Grannis
---------------------------------------------------------------------------

The other tab for this confused a few people, the tab was written upside down (I think?) 
it was right! Im just going to tab it the way I find easiest! And the way it is on her 
album 'Stairwells'! Hope it helps!

Tuning: Standard

Chords Used:

A    x02220
E    022100
F#m  244222
D    xx0232


Verse:
     A                          E
E|------------------------------0-0-----0-----0-0-----0------|
A|---0------0-----0-0-----0----------------------------------|
D|------2--------------2-------------2-------------2---------|
G|------2------2-------2-----2-------1-----1-------1-----1---|
B|------2---2----------2--2----------0--0----------0--0------|
e|-----------------------------------------------------------|

Love, it's a special day.

    F#m                         D
E|-2-2-----2-----2-2-----2-----------------------------------|
A|-----------------------------------------------------------|
D|------4-------------4---------0-0-----0-----0-0-----0------|
G|------2-----2-------2-----2--------2-------------2---------|
B|------2--2----------2--2-----------3-----3-------3-----3---|
e|-----------------------------------2--2----------2--2------|

We should celebrate, and appreciate.

Pre Chorus:

    A             E             F#m           D
E|----------------0-0-----0-----2-2-----2--------------------|
A|--0-0-----0------------------------------------------------|
A|-------2-------------2-------------4--------0-0-----0------|
G|-------2-----2-------1-----1-------2-----2-------2---------|
B|-------2--2----------0--0----------2--2----------3-----3---|
e|-------------------------------------------------2--2------|

That you and me found something pretty neat,

    A             E             F#m           D
E|----------------0-0-----0-----2-2-----2--------------------|
A|--0-0-----0------------------------------------------------|
D|-------2-------------2-------------4--------0-0------------|
G|-------2-----2-------1-----1-------2-----2-------2---------|
B|-------2--2----------0--0----------2--2-------------3------|
e|-------------------------------------------------------2---|

and I know some say this day is arbitrary.

Chorus:

    A             E             F#m           D
E|----------------0-0-----0-----2-2-----2--------------------|
A|--0-0-----0------------------------------------------------|
A|-------2-------------2-------------4--------0-0-----0------|
G|-------2-----2-------1-----1-------2-----2-------2---------|
B|-------2--2----------0--0----------2--2----------3-----3---|
e|-------------------------------------------------2--2------|

But it's a good excuse, put our love to use, Baby I know what to do, Baby I,

    A             E             F#m           D
E|----------------0-0-----0-----2-2-----2--------------------|
A|--0-0-----0------------------------------------------------|
A|-------2-------------2-------------4--------0-0-----0------|
G|-------2-----2-------1-----1-------2-----2-------2---------|
B|-------2--2----------0--0----------2--2----------3-----3---|
e|-------------------------------------------------2--2------|

I will love you, I'll love you, I'll love you.

Verse:

     A                          E
E|------------------------------0-0-----0-----0-0-----0------|
A|---0------0-----0-0-----0----------------------------------|
D|------2--------------2-------------2-------------2---------|
G|------2------2-------2-----2-------1-----1-------1-----1---|
B|------2---2----------2--2----------0--0----------0--0------|
e|-----------------------------------------------------------|

Love, I don't need those things,

   F#m                          D
E|-2-2-----2-----2-2-----2-----------------------------------|
A|-----------------------------------------------------------|
D|------4-------------4---------0-0-----0-----0-0-----0------|
G|------2-----2-------2-----2--------2-------------2---------|
B|------2--2----------2--2-----------3-----3-------3-----3---|
e|-----------------------------------2--2----------2--2------|

I don't need anything.

Pre Chorus:

    A             E             F#m           D
E|----------------0-0-----0-----2-2-----2--------------------|
A|--0-0-----0------------------------------------------------|
A|-------2-------------2-------------4--------0-0-----0------|
G|-------2-----2-------1-----1-------2-----2-------2---------|
B|-------2--2----------0--0----------2--2----------3-----3---|
e|-------------------------------------------------2--2------|

But you with me, 'cause in your company,

    A             E             F#m           D
E|----------------0-0-----0-----2-2-----2--------------------|
A|--0-0-----0------------------------------------------------|
D|-------2-------------2-------------4--------0-0------------|
G|-------2-----2-------1-----1-------2-----2-------2---------|
B|-------2--2----------0--0----------2--2-------------3------|
e|-------------------------------------------------------2---|

I feel happy, oh so happy and complete.

Chorus:

    A             E             F#m           D
E|----------------0-0-----0-----2-2-----2--------------------|
A|--0-0-----0------------------------------------------------|
A|-------2-------------2-------------4--------0-0-----0------|
G|-------2-----2-------1-----1-------2-----2-------2---------|
B|-------2--2----------0--0----------2--2----------3-----3---|
e|-------------------------------------------------2--2------|

And it's a good excuse, put our love to use, Baby I know what to do, Baby I,

    A             E             F#m           D
E|----------------0-0-----0-----2-2-----2--------------------|
A|--0-0-----0------------------------------------------------|
A|-------2-------------2-------------4--------0-0-----0------|
G|-------2-----2-------1-----1-------2-----2-------2---------|
B|-------2--2----------0--0----------2--2----------3-----3---|
e|-------------------------------------------------2--2------|

I will love you, I'll love you, I'll love you.

     A             E             F#m           D
E|----------------0-0-----0-----2-2-----2--------------------|
A|--0-0-----0------------------------------------------------|
A|-------2-------------2-------------4--------0-0-----0------|
G|-------2-----2-------1-----1-------2-----2-------2---------|
B|-------2--2----------0--0----------2--2----------3-----3---|
e|-------------------------------------------------2--2------|

Yeah, it's a good excuse, put our love to use, Baby I know what to do, Baby
 I,

    A             E             F#m           D
E|----------------0-0-----0-----2-2-----2--------------------|
A|--0-0-----0------------------------------------------------|
A|-------2-------------2-------------4--------0-0-----0------|
G|-------2-----2-------1-----1-------2-----2-------2---------|
B|-------2--2----------0--0----------2--2----------3-----3---|
e|-------------------------------------------------2--2------|

I will love you, I'll love you, I'll love you.

Bridge:

    A             E             F#m           D
E|----------------0-0-----0-----2-2-----2--------------------|
A|--0-0-----0------------------------------------------------|
A|-------2-------------2-------------4--------0-0-----0------|
G|-------2-----2-------1-----1-------2-----2-------2---------|
B|-------2--2----------0--0----------2--2----------3-----3---|
e|-------------------------------------------------2--2------|

So won't you be my honeybee, giving me sweet kisses all the time,

    A             E             F#m           D
E|----------------0-0-----0-----2-2-----2--------------------|
A|--0-0-----0------------------------------------------------|
A|-------2-------------2-------------4--------0-0-----0------|
G|-------2-----2-------1-----1-------2-----2-------2---------|
B|-------2--2----------0--0----------2--2----------3-----3---|
e|-------------------------------------------------2--2------|

Be mine, be my valentine.

    A             E             F#m           D
E|----------------0-0-----0-----2-2-----2--------------------|
A|--0-0-----0------------------------------------------------|
A|-------2-------------2-------------4--------0-0-----0------|
G|-------2-----2-------1-----1-------2-----2-------2---------|
B|-------2--2----------0--0----------2--2----------3-----3---|
e|-------------------------------------------------2--2------|

So won't you be my honeybee, giving me sweet kisses all the time,

    A             E             F#m          (F#m)
E|----------------0-0-----0-----2-2-----2-----2-2-----2------|
A|--0-0-----0------------------------------------------------|
A|-------2-------------2-------------4-------------4---------|
G|-------2-----2-------1-----1-------2-----2-------2-----2---|
B|-------2--2----------0--0----------2--2----------2--2------|
e|-----------------------------------------------------------|

Be mine, be my valentine.

Outro:

    A             E          A
E|----------------0----0---------------------|
A|--0-0-----0----------------0-------------0-|
A|-------2---------------------2-------2-----|
G|-------2-----2-----------------2---2---2---|
B|-------2--2-----0----0-----------2---------|
e|-------------------------------------------|

Oh, be my valentine
Tap to rate this tab
 
# A B C D E F G H I J K L M N O P Q R S T U V W X Y Z