Kina Grannis - Ours To Keep tab

----------------------------------------------------------------------------
                     OURS TO KEEP - Kina Grannis
----------------------------------------------------------------------------

 Hi! So, this is a really pretty song, I think the chords for this are
 already up, but for people who prefer tabs: here it is!...I think it
 needed tabbing because there are a few little hammer-ons and stuff,
 so its good to have a visual on what you're doing (..?!).

Tuning: Capo 2

Strumming: d udud udu

Chords Used:

G          320033
C          x32010
Dsus4/F#   200233
Cadd9      x32033
Am7        x02010
B/G        020033
Em7        022030

Intro:

    G       C      Dsus4/F#        G       C       Dsus4/F#
E|-3-------x-------2---------------3-------x-------2----------------|
A|-2-------3-------0---------------2-------3-------0----------------|
D|-0-------2-------0---------------0-------2-------0----------------|
G|-0-------0-------2---------------0-------0-------2----------------|
B|-3-------0h1p0---3---------------3-------0h1p0---3----------------|
e|-3-------0-------3---------------3-------0-------3----------------|

Verse:
   G               Dsus4/F#        Cadd9           G
E|-3---------------2---------------x---------------3----------------|
A|-2---------------0---------------3---------------2----------------|
D|-0---------------0---------------2---------------0----------------|
G|-0---------------2---------------0---------------0----------------|
B|-3---------------3---------------3---------------3----------------|
e|-3---------------3---------------3---------------3----------------|

How does circumstance, Seem to cost us every chance, At living out the truth in our hearts.

  G               Dsus4/F#         Cadd9           G
E|-3---------------2---------------x---------------3----------------|
A|-2---------------0---------------3---------------2----------------|
D|-0---------------0---------------2---------------0----------------|
G|-0---------------2---------------0---------------0----------------|
B|-3---------------3---------------3---------------3----------------|
e|-3---------------3---------------3---------------3----------------|

It seems the best laid plans, Fall just outside our hands, And leave us broken down and 
apart.

Pre-Chorus:

   Em7    Dsus4/F# Cadd9   B/G     Am7     Dsus4/F#
E|-0-------2-------x-------0-------x-------2----------------|
A|-2-------0-------3-------2-------0-------0----------------|
D|-2-------0-------2-------0-------2-------0----------------|
G|-0-------2-------0-------0-------0-------2----------------|
B|-3-------3-------3-------3-------1-------3----------------|
e|-3-------3-------3-------3-------0-------3----------------|

But if faith plays a role, I know someday I'll hold you in my arms forevermore.

Chorus:

   G       Cadd9   Dsus4/F#        G       Cadd9   Dsus4/F#
E|-3-------x-------2---------------3-------x-------2----------------|
A|-2-------3-------0---------------2-------3-------0----------------|
D|-0-------2-------0---------------0-------2-------0----------------|
G|-0-------0-------2---------------0-------0-------2----------------|
B|-3-------3-------3---------------3-------3-------3----------------|
e|-3-------3-------3---------------3-------3-------3----------------|

So let's love like it's ours to keep, Love like we've always dreamed

   G       Cadd9   Dsus4/F#        G       Cadd9
E|-3-------x-------2---------------3-------x-------|
A|-2-------3-------0---------------2-------3-------|
D|-0-------2-------0---------------0-------2-------|
G|-0-------0-------2---------------0-------0-------|
B|-3-------3-------3---------------3-------3-------|
e|-3-------3-------3---------------3-------3-------|
And maybe this time, The fates will be kind to us, So let's love like it's ours to keep.

   G       C       Dsus4/F#        G       C       Dsus4/F#
E|-3-------x-------2---------------3-------x-------2----------------|
A|-2-------3-------0---------------2-------3-------0----------------|
D|-0-------2-------0---------------0-------2-------0----------------|
G|-0-------0-------2---------------0-------0-------2----------------|
B|-3-------0h1p0---3---------------3-------0h1p0---3----------------|
e|-3-------0-------3---------------3-------0-------3----------------|


Verse:

   G               Dsus4/F#        Cadd9           G
E|-3---------------2---------------x---------------3----------------|
A|-2---------------0---------------3---------------2----------------|
D|-0---------------0---------------2---------------0----------------|
G|-0---------------2---------------0---------------0----------------|
B|-3---------------3---------------3---------------3----------------|
e|-3---------------3---------------3---------------3----------------|

I wish there was a way, that we could some how stay, In this perfect moment in time.

   G               Dsus4/F#        Cadd9           G
E|-3---------------2---------------x---------------3----------------|
A|-2---------------0---------------3---------------2----------------|
D|-0---------------0---------------2---------------0----------------|
G|-0---------------2---------------0---------------0----------------|
B|-3---------------3---------------3---------------3----------------|
e|-3---------------3---------------3---------------3----------------|

I'd give up everything, 'Cause this is all I dream about, Whenever I'm alone inside my mind.


Pre-Chorus:

   Em7    Dsus4/F# Cadd9   B/G     Am7     Dsus4/F#
E|-0-------2-------x-------0-------x-------2----------------|
A|-2-------0-------3-------2-------0-------0----------------|
D|-2-------0-------2-------0-------2-------0----------------|
G|-0-------2-------0-------0-------0-------2----------------|
B|-3-------3-------3-------3-------1-------3----------------|
e|-3-------3-------3-------3-------0-------3----------------|

But if faith plays a role, I know someday I'll hold you in my arms forevermore.


Chorus:

   G       Cadd9   Dsus4/F#        G       Cadd9   Dsus4/F#
E|-3-------x-------2---------------3-------x-------2----------------|
A|-2-------3-------0---------------2-------3-------0----------------|
D|-0-------2-------0---------------0-------2-------0----------------|
G|-0-------0-------2---------------0-------0-------2----------------|
B|-3-------3-------3---------------3-------3-------3----------------|
e|-3-------3-------3---------------3-------3-------3----------------|

So let's love like it's ours to keep, Love like we've always dreamed

   G       Cadd9   Dsus4/F#        G       Cadd9
E|-3-------x-------2---------------3-------x-------|
A|-2-------3-------0---------------2-------3-------|
D|-0-------2-------0---------------0-------2-------|
G|-0-------0-------2---------------0-------0-------|
B|-3-------3-------3---------------3-------3-------|
e|-3-------3-------3---------------3-------3-------|


And maybe this time, The fates will be kind to us, So let's love like it's ours to keep.

   G       C       Dsus4/F#        G       C       Dsus4/F#
E|-3-------x-------2---------------3-------x-------2----------------|
A|-2-------3-------0---------------2-------3-------0----------------|
D|-0-------2-------0---------------0-------2-------0----------------|
G|-0-------0-------2---------------0-------0-------2----------------|
B|-3-------0h1p0---3---------------3-------0h1p0---3----------------|
e|-3-------0-------3---------------3-------0-------3----------------|


Pre-Chorus:

   Em7    Dsus4/F# Cadd9   B/G     Am7     Dsus4/F#
E|-0-------2-------x-------0-------x-------2----------------|
A|-2-------0-------3-------2-------0-------0----------------|
D|-2-------0-------2-------0-------2-------0----------------|
G|-0-------2-------0-------0-------0-------2----------------|
B|-3-------3-------3-------3-------1-------3----------------|
e|-3-------3-------3-------3-------0-------3----------------|

But if faith plays a role, I know someday I'll hold you in my arms forevermore.


Chorus:


   G       Cadd9   Dsus4/F#        G       Cadd9   Dsus4/F#
E|-3-------x-------2---------------3-------x-------2----------------|
A|-2-------3-------0---------------2-------3-------0----------------|
D|-0-------2-------0---------------0-------2-------0----------------|
G|-0-------0-------2---------------0-------0-------2----------------|
B|-3-------3-------3---------------3-------3-------3----------------|
e|-3-------3-------3---------------3-------3-------3----------------|

So let's love like it's ours to keep, Love like we've always dreamed

   G       Cadd9   Dsus4/F#        G       Cadd9
E|-3-------x-------2---------------3-------x-------|
A|-2-------3-------0---------------2-------3-------|
D|-0-------2-------0---------------0-------2-------|
G|-0-------0-------2---------------0-------0-------|
B|-3-------3-------3---------------3-------3-------|
e|-3-------3-------3---------------3-------3-------|


And maybe this time, The fates will be kind to us, So let's love like it's ours to keep.

   G       C       Dsus4/F#        G       Cadd9
E|-3-------x-------2---------------3-------x-------|
A|-2-------3-------0---------------2-------3-------|
D|-0-------2-------0---------------0-------2-------|
G|-0-------0-------2---------------0-------0-------|
B|-3-------0h1p0---3---------------3-------3-------|
e|-3-------0-------3---------------3-------3-------|
                               I wanna love you lke its ours to keep.

Outro: (play a bit slower!)

   G       C       Dsus4/F#  (strum once.)
E|-3-------x-------2---------------|
A|-2-------3-------0---------------|
D|-0-------2-------0---------------|
G|-0-------0-------2---------------|
B|-3-------3-------3---------------|
e|-3-------3-------3---------------|

*If playing to the live version, this is right! If playing to the studio (General 
version, then add the C (with hammer-ons/pull-offs!) After the G in the verses! I didn't tab 
because when she plays it live she plays it this way!
Tap to rate this tab
 
# A B C D E F G H I J K L M N O P Q R S T U V W X Y Z