Kina Grannis - Stay Just A Little tab

----------------------------------------------------------------------------
		    STAY JUST A LITTLE- Kina Grannis
----------------------------------------------------------------------------

This is for the album version of the song, youtube version is slightly
 different. 
Tuning: Capo 2

Chords Used:
C        x32010(when I write >2 i mean slide the whole C shape up 2 frets!)
G*       320000
Dsus2/F# 200230
G        320033
Em       022000

Intro:
   C                          G*
e|-0---------------------------------------------------------------|
B|---1---3------0--------------------0--------------0--------------|
G|----------0------0---2--0--0-------------------------------------|
D|-------------------------------0------0---0---0------0---0-------|
A|-3---3------3------3---------------------------------------------|
E|-----------------------------3---3------3---3---3------3---------|
   
   C                           Dsus2/F#
e|-0---------------------------------------------------------------|
B|---1---3------0------------3-------3-----------------------------|
G|----------0------0---2--0--------2----2--------------------------|
D|-------------------------------0------------0--------------------|
A|-3---3------3------3---------------------------------------------|
E|-----------------------------3------------3---3------------------|

Verse:
  C                            G*
e|-----------------------------------------------------------------|
B|-------1-------------1-------------0-------------------0---------|
G|---0-----0---0---0-----0---0---0-------0---0---0-----------0-----|
D|-----------------------------------------------------------------|
A|-3---3-----3---3---3-----3---------------------------------------|
E|-----------------------------3---3-------3---3---3---3---3-------|
I heard it in your voice when your love died.

   C                           G           Dsus2/F#
e|-----------------------------------------------------------------|
B|-------1-------------1-------------3-----------------------------|
G|---0-----0---0---0-----0---0---0-------0-------------------------|
D|-----------------------------------------------------------------|
A|-3---3-----3---3---3-----3---------------------------------------|
E|-----------------------------3---3-------2-----------------------|
On a telephone connection stretching miles and miles of wire.

   C                           G           Dsus2/F#
e|-----------------------------------------------------------------|
B|-------1-------------1-------------3-----------------------------|
G|---0-----0---0---0-----0---0---0-------0-------------------------|
D|-----------------------------------------------------------------|
A|-3---3-----3---3---3-----3---------------------------------------|
E|-----------------------------3---3-------2-----------------------|
You said it was over and then cried and cried

   C                           >2           
e|-----------------------------------------------------------------|
B|-------1-------------1-------------3-----------------------------|
G|---0-----0---0---0-----0---0---0-----0---0-----------------------|
D|-----------------------------------------------------------------|
A|-3---3-----3---3---3-----3---5---5-----5---5---------------------|
E|-----------------------------------------------------------------|
You were gone before I said goodbye.

Chorus:
  C              Em            G*
e|-----------------------------------------------------------------|
B|-------1-------------0-------------0-------------------0---------|
G|---0-----0---0---0-----0---0---0-------0---0---0-----------0-----|
D|-----------------------------------------------------------------|
A|-3---3-----3-----------------------------------------------------|
E|---------------0---0-----0---3---3-------3---3---3---3---3-------|
Would you stay just a little, my love?

  C              Em            Dsus2/F#
e|-----------------------------------------------------------------|
B|-------1-------------0-------------3-------------------3---------|
G|---0-----0---0---0-----0---0---2-------2---2---2-----------2-----|
D|-----------------------------------------------------------------|
A|-3---3-----3-----------------------------------------------------|
E|---------------0---0-----0---2---3-------2---2---2---2---2-------|
Would you sway just a little, my love?

  C              Em            Dsus2/F#    Em
e|-----------------------------------------------------------------|
B|-------1-------------0-------------3-----------------------------|
G|---0-----0---0---0-----0---0---2-------2-------------------------|
D|-----------------------------------------------------------------|
A|-3---3-----3-----------------------------------------------------|
E|---------------0---0-----0---2---3-------0-----------------------|
Because the hole in the middle of my heart needs filling up

   C                           >2           
e|-----------------------------------------------------------------|
B|-------1-------------1-------------3-----------------------------|
G|---0-----0---0---0-----0---0---0-----0---0-----------------------|
D|-----------------------------------------------------------------|
A|-3---3-----3---3---3-----3---5---5-----5---5---------------------|
E|-----------------------------------------------------------------|
If you stay just a little, that's enough.

Verse: (use above picking pattern, im just going to write the chords.)
     C                          G*
 It kills me as I lay awake at night
    C                                G                  Dsus2/F#
 Remembering the last kiss that we shared doesn't feel right
    C                        G        Dsus2/F#
 Is it impossible for me to win this fight?
      C                          >2
 Keep you a little longer in my life.


Chorus: (same as above!)
             C          Em        G*
 Would you stay just a little, my love?
             C          Em         Dsus2/F#
 Would you sway just a little, my love?
             C           Em           Dsus2/F#            Em
 Because the hole in the middle of my heart needs filling up
           C                         >2
 If you stay just a little, that's enough.

Bridge: (same as intro)
   C                          G*
e|-0---------------------------------------------------------------|
B|---1---3------0--------------------0--------------0--------------|
G|----------0------0---2--0--0-------------------------------------|
D|-------------------------------0------0---0---0------0---0-------|
A|-3---3------3------3---------------------------------------------|
E|-----------------------------3---3------3---3---3------3---------|
   
   C                           Dsus2/F#
e|-0---------------------------------------------------------------|
B|---1---3------0------------3-------3-----------------------------|
G|----------0------0---2--0--------2----2--------------------------|
D|-------------------------------0------------0--------------------|
A|-3---3------3------3---------------------------------------------|
E|-----------------------------3------------3---3------------------|

Chorus: 
   C              Em            Dsus2/F#    Em
e|-----------------------------------------------------------------|
B|-------1-------------0-------------3-----------------------------|
G|---0-----0---0---0-----0---0---2-------2-------------------------|
D|-----------------------------------------------------------------|
A|-3---3-----3-----------------------------------------------------|
E|---------------0---0-----0---2---3-------0-----------------------|
Because the hole in the middle of my heart needs filling up.         
 
  C              Em            Dsus2/F#
e|-----------------------------------------------------------------|
B|-------1-------------0-------------3-------------------3---------|
G|---0-----0---0---0-----0---0---2-------2---2---2-----------2-----|
D|-----------------------------------------------------------------|
A|-3---3-----3-----------------------------------------------------|
E|---------------0---0-----0---2---3-------2---2---2---2---2-------|
If you stay just a little

  C              Em            Dsus2/F#
e|-----------------------------------------------------------------|
B|-------1-------------0-------------3-------------------3---------|
G|---0-----0---0---0-----0---0---2-------2---2---2-----------2-----|
D|-----------------------------------------------------------------|
A|-3---3-----3-----------------------------------------------------|
E|---------------0---0-----0---2---3-------2---2---2---2---2-------|
If you stay just a little, that's enough.

Outro:
   G*
e|-----------------------------------------------------------------|
B|-0-----0-------1------1------0-----0-----------------------------|
G|---0------0-------0------0-----0-----0---0-----------------------|
D|-----------------------------------------------------------------|
A|-----------------------------------------------------------------|
E|-----3-------3------3------3-----3-----3---3---------------------|

Tap to rate this tab
 
# A B C D E F G H I J K L M N O P Q R S T U V W X Y Z