Song name
# A B C D E F G H I J K L M N O P Q R S T U V W X Y Z

Kina Grannis - Mr Sun tab

----------------------------------------------------------------------------
			  MR SUN - Kina Grannis
----------------------------------------------------------------------------

The picking is pretty simple, but it took ages to actually work out how to write it 
so sorry if I got lazy!
(for the chords, check out the other version! Its pretty accurate!)

Tuning: Capo 1

Chords Used:
A     x02220
F#m   244222
E     022100
D*     xx0232
Bm    x24432
(*when on D, 4th fret, 5th string is sometimes pressed down. Use 5th finger to do this!)
Intro:
  A
e|---------------------------------|
B|-------2-------2-------2-------2-|
G|---2-------2-------2------2------|
D|---------------------------------|
A|-0---0---0---0---0---0---0---0---|
E|---------------------------------|

Verse:
   A                               F#m
e|-----------------------------------------------------------------|
B|-------2-------2-------2-------2-------2-------2-------2-------2-|
G|---2-------2-------2-------2-------2-------2-------2-------2-----|
D|-----------------------------------------------------------------|
A|-0---0---0---0---0---0---0---0-----------------------------------|
E|---------------------------------2---2---2---2---2---2---2---2---|
The spring time brings out,

   E                               D               E
e|-----------------------------------------------------------------|
B|-------0-------0-------0-------0-------3-------3-------0-------0-|
G|---1-------1-------1-------1-------2-------2-------1-------1-----|
D|---------------------------------0---0---------------------------|
A|-----------------------------------------4---4-------------------|
E|-0---0---0---0---0---0---0---0-------------------0---0---0---0---|
The brightest green in things.

   A                               F#m
e|-----------------------------------------------------------------|
B|-------2-------2-------2-------2-------2-------2-------2-------2-|
G|---2-------2-------2-------2-------2-------2-------2-------2-----|
D|-----------------------------------------------------------------|
A|-0---0---0---0---0---0---0---0-----------------------------------|
E|---------------------------------2---2---2---2---2---2---2---2---|
And Tiny sprouts push the soil from their

   E                               D               E
e|-----------------------------------------------------------------|
B|-------0-------0-------0-------0-------3-------3-------0-------0-|
G|---1-------1-------1-------1-------2-------2-------1-------1-----|
D|---------------------------------0---0---------------------------|
A|-----------------------------------------4---4-------------------|
E|-0---0---0---0---0---0---0---0-------------------0---0---0---0---|
way, Mr. Sun, please don't go

  A
e|---------------------------------|
B|-------2-------2-------2-------2-|
G|---2-------2-------2------2------|
D|---------------------------------|
A|-0---0---0---0---0---0---0---0---|
E|---------------------------------|
away.

Chorus:
   F#m                             E
e|-----------------------------------------------------------------|
B|-------2-------2-------2-------2-------0-------0-------0-------0-|
G|---2-------2-------2-------2-------1-------1-------1-------1-----|
D|-----------------------------------------------------------------|
A|-----------------------------------------------------------------|
E|-2---2---2---2---2---2---2---2---0---0---0---0---0---0---0---0---|
'cause the winter saddened all the flowers

   A                               D
e|---------------------------------------2-------2-------2-------2-|
B|-------2-------2-------2-------2---3-------3-------3-------3-----|
G|---2-------2-------2-------2-------------------------------------|
D|---------------------------------0---0---0---0---0---0---0---0---|
A|-0---0---0---0---0---0---0---0-----------------------------------|
E|-----------------------------------------------------------------|
And the ocean turned to gray

   F#m                             E
e|-----------------------------------------------------------------|
B|-------2-------2-------2-------2-------0-------0-------0-------0-|
G|---2-------2-------2-------2-------1-------1-------1-------1-----|
D|-----------------------------------------------------------------|
A|-----------------------------------------------------------------|
E|-2---2---2---2---2---2---2---2---0---0---0---0---0---0---0---0---|
And the sky cried out for days and days

   D                               D               E
e|-------2-------2-------2-------2---------------------------------|
B|---3-------3-------3-------3-----------3-------3-------0-------0-|
G|-----------------------------------2-------2-------1-------1-----|
D|-0---0---0---0---0---0---0---0---0---0---------------------------|
A|-----------------------------------------4---4-------------------|
E|-------------------------------------------------0---0---0---0---|
Mr. Sun, please don't go away
  A
e|---------------------------------|
B|-------2-------2-------2-------2-|
G|---2-------2-------2------2------|
D|---------------------------------|
A|-0---0---0---0---0---0---0---0---|
E|---------------------------------|


Verse:
   A                               F#m
e|-----------------------------------------------------------------|
B|-------2-------2-------2-------2-------2-------2-------2-------2-|
G|---2-------2-------2-------2-------2-------2-------2-------2-----|
D|-----------------------------------------------------------------|
A|-0---0---0---0---0---0---0---0-----------------------------------|
E|---------------------------------2---2---2---2---2---2---2---2---|
The birds and bees all sing happy things as they fly

   E                               D               E
e|-----------------------------------------------------------------|
B|-------0-------0-------0-------0-------3-------3-------0-------0-|
G|---1-------1-------1-------1-------2-------2-------1-------1-----|
D|---------------------------------0---0---------------------------|
A|-----------------------------------------4---4-------------------|
E|-0---0---0---0---0---0---0---0-------------------0---0---0---0---|
into the sky

   A                               F#m
e|-----------------------------------------------------------------|
B|-------2-------2-------2-------2-------2-------2-------2-------2-|
G|---2-------2-------2-------2-------2-------2-------2-------2-----|
D|-----------------------------------------------------------------|
A|-0---0---0---0---0---0---0---0-----------------------------------|
E|---------------------------------2---2---2---2---2---2---2---2---|
And lonely trees will grow families in their leaves

   E                               D               E
e|-----------------------------------------------------------------|
B|-------0-------0-------0-------0-------3-------3-------0-------0-|
G|---1-------1-------1-------1-------2-------2-------1-------1-----|
D|---------------------------------0---0---------------------------|
A|-----------------------------------------4---4-------------------|
E|-0---0---0---0---0---0---0---0-------------------0---0---0---0---|
Mr. Sun, stay here won't you please

  A
e|---------------------------------|
B|-------2-------2-------2-------2-|
G|---2-------2-------2------2------|
D|---------------------------------|
A|-0---0---0---0---0---0---0---0---|
E|---------------------------------|

Chorus:
   F#m                             E
e|-----------------------------------------------------------------|
B|-------2-------2-------2-------2-------0-------0-------0-------0-|
G|---2-------2-------2-------2-------1-------1-------1-------1-----|
D|-----------------------------------------------------------------|
A|-----------------------------------------------------------------|
E|-2---2---2---2---2---2---2---2---0---0---0---0---0---0---0---0---|
'cause the winter saddened all the flowers

   A                               D
e|---------------------------------------2-------2-------2-------2-|
B|-------2-------2-------2-------2---3-------3-------3-------3-----|
G|---2-------2-------2-------2-------------------------------------|
D|---------------------------------0---0---0---0---0---0---0---0---|
A|-0---0---0---0---0---0---0---0-----------------------------------|
E|-----------------------------------------------------------------|
And the ocean turned to gray

   F#m                             E
e|-----------------------------------------------------------------|
B|-------2-------2-------2-------2-------0-------0-------0-------0-|
G|---2-------2-------2-------2-------1-------1-------1-------1-----|
D|-----------------------------------------------------------------|
A|-----------------------------------------------------------------|
E|-2---2---2---2---2---2---2---2---0---0---0---0---0---0---0---0---|
And the sky cried out for days and days

   D                               D               E
e|-------2-------2-------2-------2---------------------------------|
B|---3-------3-------3-------3-----------3-------3-------0-------0-|
G|-----------------------------------2-------2-------1-------1-----|
D|-0---0---0---0---0---0---0---0---0---0---------------------------|
A|-----------------------------------------4---4-------------------|
E|-------------------------------------------------0---0---0---0---|
Mr. Sun, please don't go away
  A
e|---------------------------------|
B|-------2-------2-------2-------2-|
G|---2-------2-------2------2------|
D|---------------------------------|
A|-0---0---0---0---0---0---0---0---|
E|---------------------------------|

Outro:
   F#m                             A
e|-----------------------------------------------------------------|
B|-------2-------2-------2-------2-------2-------2-------2-------2-|
G|---2-------2-------2-------2-------2-------2-------2-------2-----|
D|-----------------------------------------------------------------|
A|---------------------------------0---0---0---0---0---0---0---0---|
E|-2---2---2---2---2---2---2---2-----------------------------------|
mmmm...

   F#m                             A
e|-----------------------------------------------------------------|
B|-------2-------2-------2-------2-------2-------2-------2-------2-|
G|---2-------2-------2-------2-------2-------2-------2-------2-----|
D|-----------------------------------------------------------------|
A|---------------------------------0---0---0---0---0---0---0---0---|
E|-2---2---2---2---2---2---2---2-----------------------------------|
mmmm...

   Bm              A
e|---------------------------------|
B|-------3-------3-------2-------2-|
G|---4-------4-------2-------2-----|
D|---------------------------------|
A|-2---2---2---2---0---0---0---0---|
E|---------------------------------|
mmmm...
   E               A
e|---------------------------------|
B|-------0-------0-------2---------|
G|---1-------1-------2-----2---2---|
D|---------------------------------|
A|-----------------0---0-----0---0-|
E|-0---0---0---0-------------------|
mmmm...

I hope this helps, listen to the record to help you out!
Tap to rate this tab
# A B C D E F G H I J K L M N O P Q R S T U V W X Y Z