Song name
# A B C D E F G H I J K L M N O P Q R S T U V W X Y Z

Kina Grannis - Delicate tab

----------------------------------------------------------------------------
                     DELICATE - Kina Grannis			   
----------------------------------------------------------------------------

Hi, this is my version of 'Delicate'...I am tabbing this from the album
 version, not the youtube version, as was the last tab. I would also like
 to expand on a couple of things!

Tuning: Standard, Capo 1

Finger positions: Keep your 1st and 3rd fingers on the G and B strings,
        use your 4th finger to play A string, and your thumb to play E     
        string, 2nd fret, and your 2nd finger to play E string, 3rd fret!
        You can play the chorus in the same way or play regular chords!

Intro:
e|-----------------------------------------------------------|
B|---3-3---3-3---3-3-----3-3-----3-3---3-3---3-3-----3-3-----|
G|---2-2---2-2---2-2p0---0-0h2---2-2---2-2---2-2p0---0-0h2---|
D|-0---------------------------0-----------------------------|
A|-------4---------------------------4-----------------------|
E|-------------2-------3-------------------2-------3---------|

Verse:
e|-----------------------------------------------------------|
B|---3-3---3-3---3-3-----3-3-----3-3---3-3---3-3-----3-3-----|
G|---2-2---2-2---2-2p0---0-0h2---2-2---2-2---2-2p0---0-0h2---|
D|-0---------------------------0-----------------------------|
A|-------4---------------------------4-----------------------|
E|-------------2-------3-------------------2-------3---------|
You said, "Be careful, it's delicate, things can just crumble apart."

e|-----------------------------------------------------------|
B|---3-3---3-3---3-3-----3-3-----3-3---3-3---3-3-----3-3-----|
G|---2-2---2-2---2-2p0---0-0h2---2-2---2-2---2-2p0---0-0h2---|
D|-0---------------------------0-----------------------------|
A|-------4---------------------------4-----------------------|
E|-------------2-------3-------------------2-------3---------|
But it's not the same for me. It's not the same for me.


Verse:
e|-----------------------------------------------------------|
B|---3-3---3-3---3-3-----3-3-----3-3---3-3---3-3-----3-3-----|
G|---2-2---2-2---2-2p0---0-0h2---2-2---2-2---2-2p0---0-0h2---|
D|-0---------------------------0-----------------------------|
A|-------4---------------------------4-----------------------|
E|-------------2-------3-------------------2-------3---------|
So I kept treading so carelessly. Thin lines that splintered my ground.

e|-----------------------------------------------------------|
B|---3-3---3-3---3-3-----3-3-----3-3---3-3---3-3-----3-3-----|
G|---2-2---2-2---2-2p0---0-0h2---2-2---2-2---2-2p0---0-0h2---|
D|-0---------------------------0-----------------------------|
A|-------4---------------------------4-----------------------|
E|-------------2-------3-------------------2-------3---------|
But I closed my eyes to them, I closed my eyes to them.


CHORUS: (strum)
e|-0----0----0----3----0----0----0----3----|
B|-3----3----3----3----3----3----3----3----|
G|-2----2----2----0----2----2----2----0----|
D|-0----0----0----0----0----0----0----0----|
A|-x----4----0----0----x----4----0----0----|
E|-x----x----2----3----x----x----2----3----|
How did you know that I couldn't be what everyone wanted me to be?

e|-0----0----0----3----0----0----0----3----|
B|-3----3----3----3----3----3----3----3----|
G|-2----2----2----0----2----2----2----0----|
D|-0----0----0----0----0----0----0----0----|
A|-x----4----0----0----x----4----0----0----|
E|-x----x----2----3----x----x----2----3----|
And how did you know that I wouldn't see when everything falls away from me?

e|-0----0----0----3----|
B|-3----3----3----3----|
G|-2----2----2----0----|
D|-0----0----0----0----|
A|-x----4----0----0----|
E|-x----x----2----3----|
When everything falls away from me.

e|------------------------------------------------------|
B|---3-3---3-3---3-3-----3-3-----3-3---3-3---3-3--------|
G|---2-2---2-2---2-2p0---0-0h2---2-2---2-2---2-2p0------|
D|-0---------------------------0------------------------|
A|-------4---------------------------4------------------|
E|-------------2-------3-------------------2--------3---|


Verse:
e|-----------------------------------------------------------|
B|---3-3---3-3---3-3-----3-3-----3-3---3-3---3-3-----3-3-----|
G|---2-2---2-2---2-2p0---0-0h2---2-2---2-2---2-2p0---0-0h2---|
D|-0---------------------------0-----------------------------|
A|-------4---------------------------4-----------------------|
E|-------------2-------3-------------------2-------3---------|
One day I woke in the rubble knee-deep in damage I'd done.

e|-----------------------------------------------------------|
B|---3-3---3-3---3-3-----3-3-----3-3---3-3---3-3-----3-3-----|
G|---2-2---2-2---2-2p0---0-0h2---2-2---2-2---2-2p0---0-0h2---|
D|-0---------------------------0-----------------------------|
A|-------4---------------------------4-----------------------|
E|-------------2-------3-------------------2-------3---------|
And I was ashamed of it, How did it come to this?


CHORUS: (strum)
e|-0----0----0----3----0----0----0----3----|
B|-3----3----3----3----3----3----3----3----|
G|-2----2----2----0----2----2----2----0----|
D|-0----0----0----0----0----0----0----0----|
A|-x----4----0----0----x----4----0----0----|
E|-x----x----2----3----x----x----2----3----|
How did you know that I couldn't be what everyone wanted me to be?

e|-0----0----0----3----0----0----0----3----|
B|-3----3----3----3----3----3----3----3----|
G|-2----2----2----0----2----2----2----0----|
D|-0----0----0----0----0----0----0----0----|
A|-x----4----0----0----x----4----0----0----|
E|-x----x----2----3----x----x----2----3----|
And how did you know that I wouldn't see when everything falls away from me?

e|-0----0----0----3----|
B|-3----3----3----3----|
G|-2----2----2----0----|
D|-0----0----0----0----|
A|-x----4----0----0----|
E|-x----x----2----3----|
When everything falls away from me.


Instumental:
e|-3--------0--------3--------0--------|
B|-3--------3--------3--------3--------|
G|-0--------2--------0--------2--------|
D|-0--------0--------0--------0--------|
A|-0--------0--------0--------0--------|
E|-3--------2--------3--------2--------|


CHORUS: (strum)
e|-0----0----0----3----0----0----0----3----|
B|-3----3----3----3----3----3----3----3----|
G|-2----2----2----0----2----2----2----0----|
D|-0----0----0----0----0----0----0----0----|
A|-x----4----0----0----x----4----0----0----|
E|-x----x----2----3----x----x----2----3----|
How did you know that I couldn't be what everyone wanted me to be?

e|-0----0----0----3----0----0----0----3----|
B|-3----3----3----3----3----3----3----3----|
G|-2----2----2----0----2----2----2----0----|
D|-0----0----0----0----0----0----0----0----|
A|-x----4----0----0----x----4----0----0----|
E|-x----x----2----3----x----x----2----3----|
And how did you know that I wouldn't see when everything falls away from me?

e|-0----0----0----3----0----0----0----3----|
B|-3----3----3----3----3----3----3----3----|
G|-2----2----2----0----2----2----2----0----|
D|-0----0----0----0----0----0----0----0----|
A|-x----4----0----0----x----4----0----0----|
E|-x----x----2----3----x----x----2----3----|
When everything falls away from me, when everything falls away from me.
Tap to rate this tab
 
# A B C D E F G H I J K L M N O P Q R S T U V W X Y Z