Song name
# A B C D E F G H I J K L M N O P Q R S T U V W X Y Z

Kina Grannis - Cambridge tab

----------------------------------------------------------------------------
                           CAMBRIDGE - Kina Grannis
----------------------------------------------------------------------------

This song is on Kina's new album 'Stairwells', the version that is already up on here is 
the original version of the song which is slightly different to the album version. I'm 
to tab the newer one!

*I submitted accidentally whilst not logged in! Dont approve the other version of this! Sorry!

Tuning: Capo 4

Chords:
G         320033
Dsus4/F#  200333 (*D/F# in the chorus! I couldn't fit the whole name on!)
Em7       022033
Cadd9     x32033
Am        x02210

Intro:
e|-----------------------------------------------------------------|
B|-----3-------3-------3-------3-------3-------3-------3-------3---|
G|-----2p0-----2p0-----2p0-----2p0-----2p0-----2p0-----2p0-----2p0-|
D|-----------------------------------------------------------------|
A|-----------------------------------------------------------------|
E|-3-3-----3-3-----3-3-----3-3-----0-0-----0-0-----0-0-----0-0-----|

e|-----------------------------------------------------------------|
B|-----3-------3-------3-------3-------3-------3-------3-------3---|
G|-----2p0-----2p0-----2p0-----2p0-----2p0-----2p0-----2p0-----2p0-|
D|-----------------------------------------------------------------|
A|-----------------------------------------------------------------|
E|-3-3-----3-3-----3-3-----3-3-----0-0-----0-0-----0-0-----0-0-----|

Verse:
e|-----------------------------------------------------------------|
B|-----3-------3-------3-------3-------3-------3-------3-------3---|
G|-----2p0-----2p0-----2p0-----2p0-----2p0-----2p0-----2p0-----2p0-|
D|-----------------------------------------------------------------|
A|-----------------------------------------------------------------|
E|-3-3-----3-3-----3-3-----3-3-----0-0-----0-0-----0-0-----0-0-----|
Just give it to me quick, are you coming home?

e|-----------------------------------------------------------------|
B|-----3-------3-------3-------3-------3-------3-------3-------3---|
G|-----2p0-----2p0-----2p0-----2p0-----2p0-----2p0-----2p0-----2p0-|
D|-----------------------------------------------------------------|
A|-----------------------------------------------------------------|
E|-3-3-----3-3-----3-3-----3-3-----0-0-----0-0-----0-0-----0-0-----|
Dont dance around it.

e|-----------------------------------------------------------------|
B|-----3-------3-------3-------3-------3-------3-------3-------3---|
G|-----2p0-----2p0-----2p0-----2p0-----2p0-----2p0-----2p0-----2p0-|
D|-----------------------------------------------------------------|
A|-----------------------------------------------------------------|
E|-3-3-----3-3-----3-3-----3-3-----0-0-----0-0-----0-0-----0-0-----|
I need to hear this I chose you long ago.

e|-----------------------------------------------------------------|
B|-----3-------3-------3-------3-------3-------3-------3-------3---|
G|-----2p0-----2p0-----2p0-----2p0-----2p0-----2p0-----2p0-----2p0-|
D|-----------------------------------------------------------------|
A|-----------------------------------------------------------------|
E|-3-3-----3-3-----3-3-----3-3-----0-0-----0-0-----0-0-----0-0-----|
Have you chosen me yet?

Pre-Chorus:
e|-----------------------------------------------------------------|
B|-----------------------------------------------------------------|
G|-----0-------0-------0-------0-------0-------0-------0-----------|
D|---0---0---0---0---0---0---0---0---0---0---0---0---0---0---------|
A|-3-------3-------5-------5-------3-------3-------5-------5-------|
E|-----------------------------------------------------------------|
Cause I'm starting to wear thin, find it harder to forgive everytime you
let us slip down you list of priorities.

Chorus: Strum (DD UUDUx2 for most chords!)

G      D/F# Em7                  Cadd9
 I'm waiting, for you to finally say,
                          Dsus4/F#
 You are here and here to stay.
G        D/F# Em7                    Cadd9
 But darling,  if you know that it's through
                              Dsus4/F#
You can't keep doing what you do. It's time to let go of you.

e|-----------------------------------------------------------------|
B|-----3-------3-------3-------3-------3-------3-------3-------3---|
G|-----2p0-----2p0-----2p0-----2p0-----2p0-----2p0-----2p0-----2p0-|
D|-----------------------------------------------------------------|
A|-----------------------------------------------------------------|
E|-3-3-----3-3-----3-3-----3-3-----0-0-----0-0-----0-0-----0-0-----|
Please don't take this wrong, you know I want you.

e|-----------------------------------------------------------------|
B|-----3-------3-------3-------3-----------------------------------|
G|-----2p0-----2p0-----2p0-----2p0---------------------------------|
D|-----------------------------------------------------------------|
A|-----------------------------------------------------------------|
E|-3-3-----3-3-----3-3-----3-3-----0-------------------------------|
But don't think I won't move on.


Pre-Chorus:
e|-----------------------------------------------------------------|
B|-----------------------------------------------------------------|
G|-----0-------0-------0-------0-------0-------0-------0-----------|
D|---0---0---0---0---0---0---0---0---0---0---0---0---0---0---------|
A|-3-------3-------5-------5-------3-------3-------5-------5-------|
E|-----------------------------------------------------------------|
Cause I'm starting to wear thin, find it harder to forgive everytime you
let us slip down you list of priorities.

Chorus: Strum

G      D/F# Em7                  Cadd9
 I'm waiting, for you to finally say,
                          Dsus4/F#
 You are here and here to stay.
G        D/F# Em7                    Cadd9
 But darling,  if you know that it's through
                              Dsus4/F#
You can't keep doing what you do. Is it time to let go of

Bridge:Strum
Am               Dsus4/F#
You once whispered words to me
              G     Dsus4/F#          Em7             Cadd9
Wondering if anybody loved each other like we do

Chorus: Strum
G      D/F# Em7                  Cadd9
 I'm waiting, for you to finally say,
                          Dsus4/F#
 You are here and here to stay.
G        D/F# Em7                    Cadd9
 But darling,  if you know that it's through
                              Dsus4/F#
You can't keep doing what you do. Is it time to let go of you.

Outro:
e|-----------------------------------------------------------------|
B|-----3-------3-------3-------3-------3-------3-------3-------3---|
G|-----2p0-----2p0-----2p0-----2p0-----2p0-----2p0-----2p0-----2p0-|
D|-----------------------------------------------------------------|
A|-----------------------------------------------------------------|
E|-3-3-----3-3-----3-3-----3-3-----0-0-----0-0-----0-0-----0-0-----|
Time to let go of you......time to let go of you

e|--------------------------------------------------------------------|
B|-----3-------3-------3-------3-------3-------3-------3-------3------|
G|-----2p0-----2p0-----2p0-----2p0-----2p0-----2p0-----2p0-----2p0----|
D|--------------------------------------------------------------------|
A|--------------------------------------------------------------------|
E|-3-3-----3-3-----3-3-----3-3-----0-0-----0-0-----0-0-----0-0-----3--|
Oooooooooh.


*In the chorus the change between D/F# (Dsus4/F#!) and Em7 is really
 quick...you don't even really need to play the D/F# you could go straight
 to Em7.
Tap to rate this tab
# A B C D E F G H I J K L M N O P Q R S T U V W X Y Z