Song name
# A B C D E F G H I J K L M N O P Q R S T U V W X Y Z

Kina Grannis - In Your Arms tab

----------------------------------------------------------------------------
                        IN YOUR ARMS-Kina Grannis
----------------------------------------------------------------------------

Hey, so this song is off Kina's album 'Stairwells' its an amazing little song 
thats fairly easy to play. The chords are already up here I think, but Im just 
going to tab it, for those of you who want to do the picking pattern.

Chords Used:
C      x32010
Am     x02210
F      133211
G      320033   

Intro:
   C                               Am
e|-----------------------------------------------------------------|
B|-----------------------------------------------------------------|
G|-----0-------0-------0-------0-------2-------2-------2-------2---|
D|---2---2---2---2---2---2---2---2---2---2---2---2---2---2---2---2-|
A|-3-------3-------3-------3-------0-------0-------0-------0-------|
E|-----------------------------------------------------------------|


Verse:
   C                               Am
e|-----------------------------------------------------------------|
B|-----------------------------------------------------------------|
G|-----0-------0-------0-------0-------2-------2-------2-------2---|
D|---2---2---2---2---2---2---2---2---2---2---2---2---2---2---2---2-|
A|-3-------3-------3-------3-------0-------0-------0-------0-------|
E|-----------------------------------------------------------------|
Hush, now let's go quiet to the park, where it first started.

   C                               Am
e|-----------------------------------------------------------------|
B|-----------------------------------------------------------------|
G|-----0-------0-------0-------0-------2-------2-------2-------2---|
D|---2---2---2---2---2---2---2---2---2---2---2---2---2---2---2---2-|
A|-3-------3-------3-------3-------0-------0-------0-------0-------|
E|-----------------------------------------------------------------|
Cold night, us lying in the dark. I felt my heart was,

   F                               G              (Strum)
e|-------------------------------------------------3---------------|
B|-------------------------------------------------3---------------|
G|-----2-------2-------2-------2-------0-------0---0---------------|
D|---3---3---3---3---3---3---3---3---0---0---0---0-0---------------|
A|-3-------3-------3-------3-------2-------2-------2---------------|
E|-------------------------------------------------3---------------|
Trying to find a place for you to stay, a place where I'd feel safe.

Chorus: (strum)
   C                               G
e|-0-------------------------------3-------------------------------|
B|-1-------------------------------3-------------------------------|
G|-0-------------------------------0-------------------------------|
D|-2-------------------------------0-------------------------------|
A|-3-------------------------------2-------------------------------|
E|-x-------------------------------3-------------------------------|
Anything we have known, anything we've forgotten.

   Am                              F
e|-0-------------------------------1-------------------------------|
B|-1-------------------------------1-------------------------------|
G|-2-------------------------------2-------------------------------|
D|-2-------------------------------3-------------------------------|
A|-0-------------------------------3-------------------------------|
E|-x-------------------------------1-------------------------------|
In the rain, in the dark we'll lay, in your arms, in your arms I'll

   C                               G
e|-0-------------------------------3-------------------------------|
B|-1-------------------------------3-------------------------------|
G|-0-------------------------------0-------------------------------|
D|-2-------------------------------0-------------------------------|
A|-3-------------------------------2-------------------------------|
E|-x-------------------------------3-------------------------------|
stay. Anything we have known, anything we've forgotten.

   Am                              F
e|-0-------------------------------1-------------------------------|
B|-1-------------------------------1-------------------------------|
G|-2-------------------------------2-------------------------------|
D|-2-------------------------------3-------------------------------|
A|-0-------------------------------3-------------------------------|
E|-x-------------------------------1-------------------------------|
In the rain, in the dark we'll lay, in your arms, in your arms I'll

   C                               Am
e|-----------------------------------------------------------------|
B|-----------------------------------------------------------------|
G|-----0-------0-------0-------0-------2-------2-------2-------2---|
D|---2---2---2---2---2---2---2---2---2---2---2---2---2---2---2---2-|
A|-3-------3-------3-------3-------0-------0-------0-------0-------|
E|-----------------------------------------------------------------|
stay.

Verse:
   C                               Am
e|-----------------------------------------------------------------|
B|-----------------------------------------------------------------|
G|-----0-------0-------0-------0-------2-------2-------2-------2---|
D|---2---2---2---2---2---2---2---2---2---2---2---2---2---2---2---2-|
A|-3-------3-------3-------3-------0-------0-------0-------0-------|
E|-----------------------------------------------------------------|
Take my hand, let's go in to the trees.

   C                               Am
e|-----------------------------------------------------------------|
B|-----------------------------------------------------------------|
G|-----0-------0-------0-------0-------2-------2-------2-------2---|
D|---2---2---2---2---2---2---2---2---2---2---2---2---2---2---2---2-|
A|-3-------3-------3-------3-------0-------0-------0-------0-------|
E|-----------------------------------------------------------------|
Behind the branches, falling on our knees.

   F                               G              (Strum)
e|-------------------------------------------------3---------------|
B|-------------------------------------------------3---------------|
G|-----2-------2-------2-------2-------0-------0---0---------------|
D|---3---3---3---3---3---3---3---3---0---0---0---0-0---------------|
A|-3-------3-------3-------3-------2-------2-------2---------------|
E|-------------------------------------------------3---------------|
I remember feeling like this part of us would never change.

Chorus: (strum)
   C                               G
e|-0-------------------------------3-------------------------------|
B|-1-------------------------------3-------------------------------|
G|-0-------------------------------0-------------------------------|
D|-2-------------------------------0-------------------------------|
A|-3-------------------------------2-------------------------------|
E|-x-------------------------------3-------------------------------|
Anything we have known, anything we've forgotten.

   Am                              F
e|-0-------------------------------1-------------------------------|
B|-1-------------------------------1-------------------------------|
G|-2-------------------------------2-------------------------------|
D|-2-------------------------------3-------------------------------|
A|-0-------------------------------3-------------------------------|
E|-x-------------------------------1-------------------------------|
In the rain, in the dark we'll lay, in your arms, in your arms I'll

   C                               G
e|-0-------------------------------3-------------------------------|
B|-1-------------------------------3-------------------------------|
G|-0-------------------------------0-------------------------------|
D|-2-------------------------------0-------------------------------|
A|-3-------------------------------2-------------------------------|
E|-x-------------------------------3-------------------------------|
stay. Anything we have known, anything we've forgotten.

   Am                              F
e|-0-------------------------------1-------------------------------|
B|-1-------------------------------1-------------------------------|
G|-2-------------------------------2-------------------------------|
D|-2-------------------------------3-------------------------------|
A|-0-------------------------------3-------------------------------|
E|-x-------------------------------1-------------------------------|
In the rain, in the dark we'll lay, in your arms, in your arms I'll stay.


Bridge: (strum)
   Am                              F
e|-0-------------------------------1-------------------------------|
B|-1-------------------------------1-------------------------------|
G|-2-------------------------------2-------------------------------|
D|-2-------------------------------3-------------------------------|
A|-0-------------------------------3-------------------------------|
E|-x-------------------------------1-------------------------------|
Follow me we both know the way.

   Am                              G (strum once and hold)
e|-0-------------------------------3-------------------------------|
B|-1-------------------------------3-------------------------------|
G|-2-------------------------------0-------------------------------|
D|-2-------------------------------0-------------------------------|
A|-0-------------------------------2-------------------------------|
E|-x-------------------------------3-------------------------------|
It's always been the same.


Chorus:
   C                              G              
e|-----------------------------------------------------------------|
B|-----------------------------------------------------------------|
G|-----0-------0-------0-------0-------0-------0-------0-------0---|
D|---2---2---2---2---2---2---2---2---0---0---0---0---0---0---0---0-|
A|-3-------3-------3-------3-------2-------2-------2-------2-------|
E|-----------------------------------------------------------------|
Anything we have known, anything we've forgotten.

   Am                              F
e|-0-------------------------------1-------------------------------|
B|-1-------------------------------1-------------------------------|
G|-2-------------------------------2-------------------------------|
D|-2-------------------------------3-------------------------------|
A|-0-------------------------------3-------------------------------|
E|-x-------------------------------1-------------------------------|
In the rain, in the dark we'll lay, in your arms, in your arms I'll


   C                               G
e|-0-------------------------------3-------------------------------|
B|-1-------------------------------3-------------------------------|
G|-0-------------------------------0-------------------------------|
D|-2-------------------------------0-------------------------------|
A|-3-------------------------------2-------------------------------|
E|-x-------------------------------3-------------------------------|
stay. Anything we have known, anything we've forgotten.

   Am                              F
e|-0-------------------------------1-------------------------------|
B|-1-------------------------------1-------------------------------|
G|-2-------------------------------2-------------------------------|
D|-2-------------------------------3-------------------------------|
A|-0-------------------------------3-------------------------------|
E|-x-------------------------------1-------------------------------|
In the rain, in the dark we'll lay, in your arms, in your arms I'll stay.


Outro: (strum)
   C                               G
e|-0-------------------------------3-------------------------------|
B|-1-------------------------------3-------------------------------|
G|-0-------------------------------0-------------------------------|
D|-2-------------------------------0-------------------------------|
A|-3-------------------------------2-------------------------------|
E|-x-------------------------------3-------------------------------|
In your arms I'll stay. In your arms I'll

   Am                              F
e|-0-------------------------------1-------------------------------|
B|-1-------------------------------1-------------------------------|
G|-2-------------------------------2-------------------------------|
D|-2-------------------------------3-------------------------------|
A|-0-------------------------------3-------------------------------|
E|-x-------------------------------1-------------------------------|
stay. In your arms I'll stay. In your arms I'll

   C   (hold)                            
e|-0--------------------------------|
B|-1--------------------------------|
G|-0--------------------------------|
D|-2--------------------------------|
A|-3--------------------------------|
E|-x--------------------------------|
stay.


Rate and comment! :)

Tap to rate this tab
# A B C D E F G H I J K L M N O P Q R S T U V W X Y Z