Song name
# A B C D E F G H I J K L M N O P Q R S T U V W X Y Z

Kina Grannis - Down And Gone tab

----------------------------------------------------------------------------
           DOWN AND GONE (THE BLUE SONG) - Kina Grannis
----------------------------------------------------------------------------

Hey, so the other version of this on here is fine and essentially is
correct. However, this is exactly how Kina plays the song live and in her
video on Youtube. Have fun!

Tuning: Capo 3 (tab relative to capo)
Note: x = mute with plam.

Intro:
e|----------------------------------------------------------------------|
B|----0---0-----------------0-----------------0-----------------0-------|
G|------0------0---0----0--------0--------0--------0--------0-----------|
D|---------------0--------0--------0--------0--------0--------0---------| x1
A|--7--------2--------3--------------0--3--------------0--3-------------|
E|-----------------------------3-----------------3-----------------3----|

e|-----------------------------------------------------------------|
B|--------0--x-----0--x--------0--x-----0--x--------0--x-----0--x--|
G|--------0--x-----0--x--------0--x-----0--x--------0--x-----0--x--|
D|--0-----------------------------------0--------------------0--x--|
A|-----7--------2--------0--3-----------------0--3-----------------|
E|-----------------------------------3--------------------3--------|
                                                                        x2
e|----------------|
B|-------0--x--0--|
G|-------0--x--0--|
D|-------------0--| 
A|-0--3-----------|
E|-------------3--|


Verse 1:
e|--------------------------------------------------------------|
B|--------0--x--0--x--------0--x-----0--x--------0--x-----0--x--|
G|--------0--x--0--x--------0--x-----0--x--------0--x-----0--x--|
D|-----------------------------------0--------------------0--x--|
A|--0--7--------2-----0--3-----------------0--3-----------------|
E|-----------------------------------3--------------------3-----|
                                                                        
e|----------------|
B|-------0--x--0--|
G|-------0--x--0--|
D|-------------0--| 
A|-0--3-----------|
E|-------------3--|

e|-----------------------------------------------------------------|
B|--------0--x-----0--x--------0--x-----0--x--------0--x-----0--x--|
G|--------0--x-----0--x--------0--x-----0--x--------0--x-----0--x--|
D|--------------------------------------0--------------------0--x--|
A|--0--7--------2--------0--3-----------------0--3-----------------|
E|-----------------------------------3--------------------3--------|
                                                                       
e|----------------|
B|-------0--x--0--|
G|-------0--x--0--|
D|-------------0--| 
A|-0--3-----------|
E|-------------3--|

Pre-Chorus 1:
e|-----------------------------------------------------|
B|-----0--x--0--x--------0--x--0--x--------0--x--0--x--|
G|-----0--x--0--x--------0--x--0--x--------0--x--0--x--|
D|-----------------------------------------------------|
A|--2--------2--x--0--3--------3--x--0--5--------5--x--|
E|-----------------------------------------------------|

e|-----------------------------------------------------------------|
B|--------0--x-----0--x--------0--x-----0--x--------0--x-----0--x--|
G|--------0--x-----0--x--------0--x-----0--x--------0--x-----0--x--|
D|--------------------------------------0--------------------0--x--|
A|--0--7--------2--------0--3-----------------0--3-----------------|
E|-----------------------------------3--------------------3--------|
                                                                        
e|----------------|
B|-------0--x--0--|
G|-------0--x--0--|
D|-------------0--| 
A|-0--3-----------|
E|-------------3--|


Verse 2:
e|--------------------------------------------------------------|
B|--------0--x--0--x--------0--x-----0--x--------0--x-----0--x--|
G|--------0--x--0--x--------0--x-----0--x--------0--x-----0--x--|
D|-----------------------------------0--------------------0--x--|
A|--0--7--------2-----0--3-----------------0--3-----------------|
E|-----------------------------------3--------------------3-----|
                                                                        
e|----------------|
B|-------0--x--0--|
G|-------0--x--0--|
D|-------------0--| 
A|-0--3-----------|
E|-------------3--|

e|-----------------------------------------------------------------|
B|--------0--x-----0--x--------0--x-----0--x--------0--x-----0--x--|
G|--------0--x-----0--x--------0--x-----0--x--------0--x-----0--x--|
D|--------------------------------------0--------------------0--x--|
A|--0--7--------2--------0--3-----------------0--3-----------------|
E|-----------------------------------3--------------------3--------|
                                                                       
e|----------------|
B|-------0--x--0--|
G|-------0--x--0--|
D|-------------0--| 
A|-0--3-----------|
E|-------------3--|


Pre-Chorus 2:
e|--------------------------------------------------------------------|
B|-----0--x--0--x--------0--x--0--x--------0--x--0--x--------0--x--0--|
G|-----0--x--0--x--------0--x--0--x--------0--x--0--x--------0--x--0--|
D|--------------------------------------------------------------------|
A|--2--------2--x--0--3--------3--x--0--5--------5--x--0--3--------3--|
E|--------------------------------------------------------------------|


Chorus:
e|--------------------------------------------------------------------------|
B|------0--x--0--x-------0--x--0--x-------0--x------0--x------0--x-----0--x-|
G|------0--x--0--x-------0--x--0--x-------0--x------0--x------0--x-----0--x-|
D|--------------------------------------------------------------------------|
A|------------------0-2--------2--x--0-7-------0-5-------0-3-------0-5------|
E|-0-3--------3--x----------------------------------------------------------|

x2

e|-----------------------------------------------------------------|
B|--------0--x-----0--x--------0--x-----0--x--------0--x-----0--x--|
G|--------0--x-----0--x--------0--x-----0--x--------0--x-----0--x--|
D|--------------------------------------0--------------------0--x--|
A|--0--7--------2--------0--3-----------------0--3-----------------|
E|-----------------------------------3--------------------3--------|
                                                                        x1
e|----------------|
B|-------0--x--0--|
G|-------0--x--0--|
D|-------------0--| 
A|-0--3-----------|
E|-------------3--|


Verse 3:
e|--------------------------------------------------------------|
B|--------0--x--0--x--------0--x-----0--x--------0--x-----0--x--|
G|--------0--x--0--x--------0--x-----0--x--------0--x-----0--x--|
D|-----------------------------------0--------------------0--x--|
A|--0--7--------2-----0--3-----------------0--3-----------------|
E|-----------------------------------3--------------------3-----|
                                                                        
e|----------------|
B|-------0--x--0--|
G|-------0--x--0--|
D|-------------0--| 
A|-0--3-----------|
E|-------------3--|

e|-----------------------------------------------------------------|
B|--------0--x-----0--x--------0--x-----0--x--------0--x-----0--x--|
G|--------0--x-----0--x--------0--x-----0--x--------0--x-----0--x--|
D|--------------------------------------0--------------------0--x--|
A|--0--7--------2--------0--3-----------------0--3-----------------|
E|-----------------------------------3--------------------3--------|
                                                                       
e|----------------|
B|-------0--x--0--|
G|-------0--x--0--|
D|-------------0--| 
A|-0--3-----------|
E|-------------3--|


Pre-chorus 3:
e|--------------------------------------------------------------------|
B|-----0--x--0--x--------0--x--0--x--------0--x--0--x--------0--x--0--|
G|-----0--x--0--x--------0--x--0--x--------0--x--0--x--------0--x--0--|
D|--------------------------------------------------------------------|
A|--2--------2--x--0--3--------3--x--0--5--------5--x--0--3--------3--|
E|--------------------------------------------------------------------|


Chorus:
e|--------------------------------------------------------------------------|
B|------0--x--0--x-------0--x--0--x-------0--x------0--x------0--x-----0--x-|
G|------0--x--0--x-------0--x--0--x-------0--x------0--x------0--x-----0--x-|
D|--------------------------------------------------------------------------|
A|------------------0-2--------2--x--0-7-------0-5-------0-3-------0-5------|
E|-0-3--------3--x----------------------------------------------------------|

x2

e|-----------------------------------------------------------------|
B|--------0--x-----0--x--------0--x-----0--x--------0--x-----0--x--|
G|--------0--x-----0--x--------0--x-----0--x--------0--x-----0--x--|
D|--------------------------------------0--------------------0--x--|
A|--0--7--------2--------0--3-----------------0--3-----------------|
E|-----------------------------------3--------------------3--------|
                                                                        x2
e|----------------|
B|-------0--x--0--|
G|-------0--x--0--|
D|-------------0--| 
A|-0--3-----------|
E|-------------3--|

Chorus:
e|--------------------------------------------------------------------------|
B|------0--x--0--x-------0--x--0--x-------0--x------0--x------0--x-----0--x-|
G|------0--x--0--x-------0--x--0--x-------0--x------0--x------0--x-----0--x-|
D|--------------------------------------------------------------------------|
A|------------------0-2--------2--x--0-7-------0-5-------0-3-------0-5------|
E|-0-3--------3--x----------------------------------------------------------|
x2

End on
e|-----|
B|--0--|
G|--0--|
D|--0--|
A|-----|
E|--3--|

:) Enjoy.

Lyrics:

Verse 1:
Blue like my hands
Blue like my heart
I drown inside
So it came that i settled for
This raft in mind

Pre Chorus 1:
Drift away, away, away down

Verse 2:
You never fell i picked you up
I'm waking up early
No one ever feels like they're perfect 
But i feel we're perfect here

Pre-Chorus 2:
I've got to speak
My eyes can't keep this secret 

Chorus:
down and gone away
I'm feeling it shouldn't be long until we both remember why
Why we kept each other around all this time

Verse 3:
I sensed you'd come around, boy
And here we stand
It is so strange how we've come so far and nothing's changed

Pre-Chorus 3:
We are what we are
Come so far

Chorus:
To keep me down and gone away
I'm feeling it shouldn't be long until we both remember why
Why we kept each other around all this time
Tap to rate this tab
# A B C D E F G H I J K L M N O P Q R S T U V W X Y Z