Song name
# A B C D E F G H I J K L M N O P Q R S T U V W X Y Z

Kina Grannis - Make Me tab

----------------------------------------------------------------------------
                       MAKE ME - Kina Grannis
----------------------------------------------------------------------------

This is a BEAUTIFUL song, and it is really easy to play. It's the bonus
 track from her album 'Stairwells'. If you order from her website you get
 this mp3 free.

Tuning: Capo 6

Chords Used:
C    x32010
C/B  x20010
Am7  x02010
F*   x33010
F    x33210
G    320000

*this F like chord is used in the intro and verses, it is a really easy 
transition from Am7, and it sounds exactly like the record.

Intro:
   C               C/B             Am7             F*
e|-----------------------------------------------------------------|
B|---------------------------------1-------1-------1-------1-------|
G|-0-------0-------0-------0---------0---0---0---0---0---0---------|
D|---2---2---2---2---0---0---0---0-----2-------2-------3-----------|
A|-----3-------3-------2-------2-----------------------------------|
E|-----------------------------------------------------------------|


Verse 1:
Rainbows....
   C               C/B             Am7             F*
e|-----------------------------------------------------------------|
B|---------------------------------1-------1-------1-------1-------|
G|-0-------0-------0-------0---------0---0---0---0---0---0---0---0-| x2
D|---2---2---2---2---0---0---0---0-----2-------2-------3-------3---|
A|-----3-------3-------2-------2-----------------------------------|
E|-----------------------------------------------------------------|


Chorus:
If you want to smile with me....
   C               C/B             Am7             F        G
e|-----------------------------------------------------------------|
B|-------1---------------1----------------1--------1-----1-0-------|
G|-0-------0---0---0-------0---0---0--------0---0----2-------0---0-| x3
D|---2---------------0---------------2-----------------------------|
A|-3---3-----3-----2---2-----2-----0---0------0----3---3-----------|
E|---------------------------------------------------------3---3---|


Verse 2:
I've been searching dreary weather....
   C               C/B             Am7             F*
e|-----------------------------------------------------------------|
B|---------------------------------1-------1-------1-------1-------|
G|-0-------0-------0-------0---------0---0---0---0---0---0---0---0-| x2
D|---2---2---2---2---0---0---0---0-----2-------2-------3-------3---|
A|-----3-------3-------2-------2-----------------------------------|
E|-----------------------------------------------------------------|


Chorus:
If you want to smile with me....
   C               C/B             Am7             F        G
e|-----------------------------------------------------------------|
B|-------1---------------1----------------1--------1-----1-0-------|
G|-0-------0---0---0-------0---0---0--------0---0----2-------0---0-| x3
D|---2---------------0---------------2-----------------------------|
A|-3---3-----3-----2---2-----2-----0---0------0----3---3-----------|
E|---------------------------------------------------------3---3---|


Bridge:
Oh, you cant change the hurt you've done....
   F*            G              C         C/B      Am7   
e|-----------------------------------------------------------------|
B|-1-----1--------------0------------1--------1----------1---------|
G|---0-----0---0--0-------0---0--0--------0--------0---------------| x2
D|------------------0--------------2---2----0---0----2-----2---2---|
A|-3---3-----3-------------------3---0----2---2----0---0-----0-----|
E|----------------3---3-----3--------------------------------------|

Make me forget...
   F              C        C/B     
e|----------------------------------|
B|-1-----1------------1--------1----|
G|---0-----0---0--0--------0--------| x3
D|------------------2---2----2---2--|
A|-3---3-----3----3---0----2---2----|
E|----------------------------------|

   Am7             F       G   
e|---------------------------------|
B|-1-----1---------1-----1-0-------|
G|---0-----0---0-----2-------0---0-| 
D|---------------------------------|
A|-0---0-----0-----3---3-----------|
E|-------------------------3---3---|


Chorus:
If you want to smile with me....
   C               C/B             Am7             F        G
e|-----------------------------------------------------------------|
B|-------1---------------1----------------1--------1-----1-0-------|
G|-0-------0---0---0-------0---0---0--------0---0----2-------0---0-| x2
D|---2---------------0---------------2-----------------------------|
A|-3---3-----3-----2---2-----2-----0---0------0----3---3-----------|
E|---------------------------------------------------------3---3---|

End on
e|---|
B|---|
G|-0-|
D|---|
A|-3-|
E|---|



Lyrics:

Rainbows, I can't find them
Past the raindrops where the light bends
And the stories tell of people
Finding beauty where the dark's hold lets go

If you want to smile with me
Hold me close and lie with me
Oh, if you want to die with me
Handle my heart carefully
Make me believe you

I've been searching dreary weather
For a cloud that's lined in silver
But the rain keeps on falling
And my love, I am calling for you

If you want to smile with me
Hold me close and lie with me
Oh, if you want to die with me
Handle my heart carefully
Make me believe you

Oh, you can't change the hurt you've done
No, please don't let us come undone
Make me forget
Make me forgive
Make me believe you

Oh, if you want to smile with me
Hold me close and lie with me
Oh, if you want to die with me
Handle my heart carefully
Make me believe

Enjoy :)
Tap to rate this tab
 
# A B C D E F G H I J K L M N O P Q R S T U V W X Y Z