Song name
# A B C D E F G H I J K L M N O P Q R S T U V W X Y Z

Kina Grannis - Mr Sun tab

No capo used in the Stairwells album song.
Capo 1st fret used in Kina's youtube video.
U-pick!

Intro:

|-------------------------------------|---------------------------------|
|--------2-------2-------2-------2----|-------2-------3-------2-------0-|
|----2-------2-------2-------2--------|---2-------2-------2-------2-----|
|------2-------2-------2-------2------|-----2-------2-------2-------2---|
|--0-------0-------0-------0----------|---------------------------------|
|-------------------------------------|-2-------2-------2-------2-------|

|-------------------------------------|--------2-------------------------|
|--------0-------0-------0--------0---|----3-----------3-------0-------0-|
|----1-------1-------1-------1--------|------2-----2-------1-------1-----|
|------2-------2-------2-------2------|--0-----------0-------2-------2---|
|----------2--------------------------|----------4---------------2-------|
|--0---------------0-------0----------|------------------0---------------|

|-------------------------------------|
|--------2-------2-------2-------2----|
|----2-------2-------2-------2--------|
|------2-------2-------2-------2------|
|--0-------0-------0-------0----------|
|-------------------------------------|

Verses:

1. The spring time brings out            The brightest green in things...
2. The birds and bees all                sing happy things as they
|-------------------------------------|---------------------------------|
|--------2-------2-------2-------2----|-------2-------3-------2-------0-|
|----2-------2-------2-------2--------|---2-------2-------2-------2-----|
|------2-------2-------2-------2------|-----2-------2-------2-------2---|
|--0-------0-------0-------0----------|---------------------------------|
|-------------------------------------|-2-------2-------2-------2-------|

1.(...)
2. Fly into the sky
|-------------------------------------|--------2-------------------------|
|--------0-------0-------0--------0---|----3-----------3-------0-------0-|
|----1-------1-------1-------1--------|------2-----2-------1-------1-----|
|------2-------2-------2-------2------|--0-----------0-------2-------2---|
|----------2--------------------------|----------4---------------2-------|
|--0---------------0-------0----------|------------------0---------------|

1. And Tiny sprouts push                   The soil from their way
2. And lonely trees will grow              Families in their leaves
|-------------------------------------|---------------------------------|
|--------2-------2-------2-------2----|-------2-------3-------2-------0-|
|----2-------2-------2-------2--------|---2-------2-------2-------2-----|
|------2-------2-------2-------2------|-----2-------2-------2-------2---|
|--0-------0-------0-------0----------|---------------------------------|
|-------------------------------------|-2-------2-------2-------2-------|

1.          Mr. Sun                     Please    don't go
2.          Mr. Sun                     Stay here won't you
|-------------------------------------|--------2-------------------------|
|--------0-------0-------0--------0---|----3-----------3-------0-------0-|
|----1-------1-------1-------1--------|------2-----2-------1-------1-----|
|------2-------2-------2-------2------|--0-----------0-------2-------2---|
|----------2--------------------------|----------4---------------2-------|
|--0---------------0-------0----------|------------------0---------------|

1.   Away
2.   Please                  (cause the)
|-------------------------------------|
|--------2-------2-------2-------2----|
|----2-------2-------2-------2--------|
|------2-------2-------2-------2------|
|--0-------0-------0-------0----------|
|-------------------------------------|

(Chorus)

(cause the) winter saddened             all the flowers and the
|-------------------------------------|----------------------------------|
|--------2-------2-------2-------0----|--------0-------0-------0-------0-|
|----2-------2-------2-------2--------|----1-------1-------1-------1-----|
|------4-------4-------4-------4------|------2-------2-------2-------2---|
|-------------------------------------|----------------------------------|
|--2-------2-------2-------2----------|--0-------0-------0-------0-------|

oceans turned to                        gray and the
|-------------------------------------|--------2-------2-------2-------2-|
|--------2-------2-------2-------2----|----3-------3-------3-------3-----|
|----2-------2-------2-------2--------|------2-------2-------2-------2---|
|------2-------2-------2-------2------|--0-------0-------0-------0-------|
|--0-------0-------0-------0----------|----------------------------------|
|-------------------------------------|----------------------------------|

sky cried down for                       days and days
|-------------------------------------|----------------------------------|
|--------2-------2-------2-------0----|--------0-------0-------0-------0-|
|----2-------2-------2-------2--------|----1-------1-------1-------1-----|
|------4-------4-------4-------4------|------2-------2-------2-------2---|
|-------------------------------------|----------------------------------|
|--2-------2-------2-------2----------|--0-------0-------0-------0-------|

Mr. Sun                                 please don't go
|-------------------------------------|--------2-------------------------|
|--------0-------0-------0--------0---|----3-----------3-------0-------0-|
|----1-------1-------1-------1--------|------2-----2-------1-------1-----|
|------2-------2-------2-------2------|--0-----------0-------2-------2---|
|----------2--------------------------|----------4---------------2-------|
|--0---------------0-------0----------|------------------0---------------|

away
|-------------------------------------|
|--------2-------2-------2-------2----|
|----2-------2-------2-------2--------|
|------2-------2-------2-------2------|
|--0-------0-------0-------0----------|
|-------------------------------------|

(ending)
m-m-mmm....
|-------------------------------------|----------------------------------|
|--------2-------2-------2-------0----|--------2-------2-------2-------2-|
|----2-------2-------2-------2--------|----2-------2-------2-------2-----|
|------4-------4-------4-------4------|------2-------2-------2-------2---|
|-------------------------------------|--0-------0-------0-------0-------|
|--2-------2-------2-------2----------|----------------------------------|

m-m-mmm....
|-------------------------------------|----------------------------------|
|--------2-------2-------2-------0----|--------2-------2-------2-------2-|
|----2-------2-------2-------2--------|----2-------2-------2-------2-----|
|------4-------4-------4-------4------|------2-------2-------2-------2---|
|-------------------------------------|--0-------0-------0-------0-------|
|--2-------2-------2-------2----------|----------------------------------|

m-m-mmm...                      mmm-  mmm....
|-------------------------------------|----------------------------------|
|--------3-------3-------3-------2----|--------0-------0-------0-------0-|
|----4-------4-------4-------2--------|----1-------1-------1-------1-----|
|------4-------4-------4-------2------|------2-------2-------2-------2---|
|--2-------2-------2-------0----------|----------------------------------|
|-------------------------------------|--0-------0-------0-------0-------|

mmm...
|-----------------------|
|--------2-------2------|
|----2-------2----------|
|------2-------2--------|
|--0-------0-------0----|
|-----------------------|


For the Chords version: http://www.ultimate-guitar.com/tabs/k/kina_grannis/mr_sun_crd.htm

For the Video tutorial: http://www.youtube.com/watch?v=2XOsPI8gmA0
Tap to rate this tab
 
# A B C D E F G H I J K L M N O P Q R S T U V W X Y Z