Guitaretab - guitar tabs
Song name
# A B C D E F G H I J K L M N O P Q R S T U V W X Y Z

Kina Grannis - Gone tab

Kina Grannis - "Gone" From the album Stairwells, released April 5th, 2011.

kinagrannis.com
youtube.com/kinagrannis
a video of her playing this song. though the audio and video don't quite match up.
http://www.youtube.com/watch?v=g_X4XcjTBok



I play on capo 4. standard tuning.

not sure about the chords names for cadd9 or D/F# but anyway, this is what she plays I think.
for the "Cadd9" you can also just play C if you want.

the chords used in this song--

    Em       Cadd9     G        D/F#?
e ---3---------3-------3----------3-----|
B ---3---------3-------3----------3-----|
G --------------------------------2-----|
D ---2---------2------------------------|
A ---2---------3-------2----------------|
E ---------------------3----------2-----|




intro/ first verse

e ------3--------3--------3--------3--------3--------3--------3--------3---|
B ----3---3----3---3----3---3----3---3----3---3----3---3----3---3----3---3-|
G --0--------0--------5--------5--------4--------4--------2--------2-------|
D -------------------------------------------------------------------------|
A -------------------------------------------------------------------------|
E -------------------------------------------------------------------------|

bridge "i never wanted to say goodbye..."
[ Tab from: http://www.guitaretab.com/k/kina-grannis/271810.html ]
e ------------------------------------------------------------------------------|
B --------0--------0--------0--------0----------0--------0---------0--------0---|
G ------0---0----0---0----0---0----0---0------0---0----0---0-----2---2----2---2-|
D ------------------------------------------------------------------------------|
A ---2--------2---------3--------3----------------------------------------------|
E ------------------------------------------3--------3---------2--------2-------|

"now im afraid to open my eyes.."

e ------------------------------------------------------------------------------|
B --------0--------0--------0--------0----------0--------0---------0--------0---|
G ------0---0----0---0----0---0----0---0------0---0----0---0-----2---2----2-----|
D ------------------------------------------------------------------------------|
A ---2--------2---------3--------3----------------------------------------------|
E ------------------------------------------3--------3---------2--------2-------|

chorus

Em  Cadd9  G    D/F#
Are you, gone, gone gone?
Tell me Im wrong, wrong wrong
It's been so long, long, long
Are you gone, gone gone?



second verse

G    Cadd9     Em     D/F#
Back, at the start - we were the only thing that mattered
and we smiled, unafraid, as we filled the night with laughter
and i tired my best to see what you tried your best to be
but you cant tell a heart when to start, how to beat

bridge

Em                        Cadd9
I never wanted to say goodbye
G                        D/F#
you never wanted to see me cry
Em                 Cadd9             G         D/F#
now Im afraid to open my eyes.


chorus

Em  Cadd9  G    D/F#
Are you, gone, gone gone?
Tell me Im wrong, wrong wrong
It's been so long, long, long
Are you gone, gone gone?



Am    C
Though it seems that we
G    D/F#
Are not meant to be
I have to disagree
You are the one for me
And i know someday
we could find our way
I hope its not too late
please stay

*finger picking now*

Em C G D/F#
Are you, gone... gone   Gone?
Are you gone, gone gone?

*start lightly strumming*

Em   C  G   D/F#
Its been so long, long long long
its been so long.

Chorus

fin :D
have fun. comments/corrections welcome
Related for Gone tab
Gone chords by Kina Grannis