Song name
# A B C D E F G H I J K L M N O P Q R S T U V W X Y Z

Kina Grannis - In Your Arms chords

Highlighted       Show chord diagrams
Hi! This is only my second tab, but I was really bothered by a tab of this song.
I don't think it did it justice. So I'm submitting this in just to rectify some mistakes 
that I saw.
It's a combination of both a tabs and chords.
It's a fairly simple song, but it's so heartwarming and gives you a fluffy feeling ^.^
So here goes...

Intro:
   C                               Am
e|-----------------------------------------------------------------|
B|-------------------------------4-------------------------------4-|
G|-----0-------0-------0-------0-------0-------0-------0-------0---|
D|---2---2---2---2---2---2---2-------2---2---2---2---2---2---2-----|
A|-3-------3-------3-------3-------3-------3-------3-------3-------|
E|-----------------------------------------------------------------|

* Basically, for the verses, you play this picking pattern and strum for the chorus & 
bridge. *

Verse:
   C                               Am
e|-----------------------------------------------------------------|
B|-------------------------------4-------------------------------4-|
G|-----0-------0-------0-------0-------0-------0-------0-------0---|
D|---2---2---2---2---2---2---2-------2---2---2---2---2---2---2-----|
A|-3-------3-------3-------3-------3-------3-------3-------3-------|
E|-----------------------------------------------------------------|
Hush, now let's go quiet to the park, where it first started.

   C                               Am
e|-----------------------------------------------------------------|
B|-------------------------------4-------------------------------4-|
G|-----0-------0-------0-------0-------0-------0-------0-------0---|
D|---2---2---2---2---2---2---2-------2---2---2---2---2---2---2-----|
A|-3-------3-------3-------3-------3-------3-------3-------3-------|
E|-----------------------------------------------------------------|
Cold night, us lying in the dark. I felt my heart was,

   F                               G              (Strum)
e|-------------------------------------------------3---------------|
B|-------------------------------4-----------------3---------------|
G|-----0-------0-------0-------0-------0-------0---0---------------|
D|---2---2---2---2---2---2---2-------2---2---2---2-0---------------|
A|-3-------3-------3-------3-------3-------3-------2---------------|
E|-------------------------------------------------3---------------|
Trying to find a place for you to stay, a place where I'd feel safe.


Chorus:
C
Anything we have known
G
Anything we've forgotten
Am                             F
In the rain, in the dark we'll lay
                                C (Am 2nd time)
In your arms, in your arms I'll stay (x2)


Verse 2:
C                               Am
e|-----------------------------------------------------------------|
B|-------------------------------4-------------------------------4-|
G|-----0-------0-------0-------0-------0-------0-------0-------0---|
D|---2---2---2---2---2---2---2-------2---2---2---2---2---2---2-----|
A|-3-------3-------3-------3-------3-------3-------3-------3-------|
E|-----------------------------------------------------------------|
Take my hand, let's go into the trees

C                                   Am
e|-----------------------------------------------------------------|
B|-------------------------------4-------------------------------4-|
G|-----0-------0-------0-------0-------0-------0-------0-------0---|
D|---2---2---2---2---2---2---2-------2---2---2---2---2---2---2-----|
A|-3-------3-------3-------3-------3-------3-------3-------3-------|
E|-----------------------------------------------------------------|
Behind the branches, falling on our knees

   F                               G              (Strum)
e|-------------------------------------------------3---------------|
B|-------------------------------4-----------------3---------------|
G|-----0-------0-------0-------0-------0-------0---0---------------|
D|---2---2---2---2---2---2---2-------2---2---2---2-0---------------|
A|-3-------3-------3-------3-------3-------3-------2---------------|
E|-------------------------------------------------3---------------|
I remember feeling like this part of us would never change.


Chorus:
C
Anything we have known
G
Anything we've forgotten
Am                             F
In the rain, in the dark we'll lay
                                C (Am 2nd time)
In your arms, in your arms I'll stay (x2)


Bridge:
Am     F
Follow me
                 Am
We both know the way
                      G (strum once and hold)
It's always been the same


Chorus:
C
Anything we have known
G
Anything we've forgotten
Am                             F
In the rain, in the dark we'll lay
                                C (Am 2nd time)
In your arms, in your arms I'll stay (x2)
                                G
In your arms, in your arms I'll stay
                                Am
In your arms, in your arms I'll stay
                                F
In your arms, in your arms I'll stay
                                C (strum once and hold)
In your arms, in your arms I'll stay
Tap to rate this tab
 
# A B C D E F G H I J K L M N O P Q R S T U V W X Y Z