Song name
# A B C D E F G H I J K L M N O P Q R S T U V W X Y Z

Kina Grannis - Without Me tab

In this song, Kina tunes her guitar a half step down and puts the capo on fret 2. This
is why I selected the "half step down" tuning. In your case, if your guitar is already
tuned to standard, just put the capo on fret 1. This was all transcribed by ear, I had 
no help. If you want, change whatever you please, but I feel I'm spot on.

Note: / = slide up

 Intro

eb|---------------------------------------------------|
Bb|-----3-2----------3-3----------3-2----------3-3----|
Gb|-----4-2----------2-0----------4-2----------2-0----|
Db|----------2------------0------------2------------0-|
Ab|-0-2---0-------------------0-2---0-----------------|
Eb|--------------0-2---3-------------------0-2---3----|

 Verse 1

eb|---------------------------------------------------|
Bb|-----3-2----------3-3----------3-2----------3-3----|
Gb|-----4-2----------2-0----------4-2----------2-0----|
Db|----------2------------0------------2------------0-|
Ab|-0-2---0-------------------0-2---0-----------------|
Eb|--------------0-2---3-------------------0-2---3----|x4

 Chorus

eb|0------0------2------3------0------0------2------3-|
Bb|3------3------3------3------3------3------3------3-|
Gb|2------2------4------0------2------2------4------0-|
Db|0------2------4------0------0------2------4------0-|
Ab|x------0------2------x------x------0------2------x-|
Eb|x------x------x------3------x------x------x------3-|x2

eb|2------0------0------3------2------0------0------3-|
Bb|3------2------3------3------3------2------3------3-|
Gb|4------2------2------0------4------2------2------0-|
Db|4------2------0------0------4------2------0------0-|
Ab|2------0------0------x------2------0------0------x-|
Eb|x------x------2------3------x------x------2------3-|

 Verse 2

eb|2------0------0------3------2------0------0------3-|
Bb|3------2------3------3------3------2------3------3-|
Gb|4------2------2------0------4------2------2------0-|
Db|4------2------0------0------4------2------0------0-|
Ab|2------0------0------x------2------0------0------x-|
Eb|x------x------2------3------x------x------2------3-|x2

 Chorus

eb|0------0------2------3------0------0------2------3-|
Bb|3------3------3------3------3------3------3------3-|
Gb|2------2------4------0------2------2------4------0-|
Db|0------2------4------0------0------2------4------0-|
Ab|x------0------2------x------x------0------2------x-|
Eb|x------x------x------3------x------x------x------3-|x2

eb|2------0------0------3------2------0------0------3-|
Bb|3------2------3------3------3------2------3------3-|
Gb|4------2------2------0------4------2------2------0-|
Db|4------2------0------0------4------2------0------0-|
Ab|2------0------0------x------2------0------0------x-|
Eb|x------x------2------3------x------x------2------3-|

 Bridge

eb|0------------3------------0------------3-----------|
Bb|3------------3------------3------------3-----------|
Gb|2------------0------------2------------0-----------|
Db|2------------0------------2------------0-----------|
Ab|0------------x------------0------------x-----------|
Eb|x------------3------------x------------3-----------|

eb|-0-----3-----0-----3------0------------3-----------|
Bb|-3-----3-----3-----3------3------------3-----------|
Gb|-2-----0-----2-----0------2------------0-----------|
Db|-2-----0-----2-----0------2------------0-----------|
Ab|-0-----x-----0-----x------0------------x-----------|
Eb|-x-----3-----x-----3------x------------3-----------|

 Chorus

eb|0------0------2-------------0--------------------3-|
Bb|3------3------3-----2/3-----3------3------3------3-|
Gb|2------2------4-------------2------2------4------0-|
Db|0------2------4-------------0------2------4------0-|
Ab|x------0------2--------------------0------2------x-|
Eb|x------x------x-----2/3--------------------------3-|

eb|0------0------2------3------0------0------2------3-|
Bb|3------3------3------3------3------3------3------3-|
Gb|2------2------4------0------2------2------4------0-|
Db|0------2------4------0------0------2------4------0-|
Ab|x------0------2------x------x------0------2------x-|
Eb|x------x------x------3------x------x------x------3-|

 Outro

eb|2------0------0------3------2------0------0------3-|
Bb|3------2------3------3------3------2------3------3-|
Gb|4------2------2------0------4------2------2------0-|
Db|4------2------0------0------4------2------0------0-|
Ab|2------0------0------x------2------0------0------x-|
Eb|x------x------2------3------x------x------2------3-|x2
Tap to rate this tab
 
# A B C D E F G H I J K L M N O P Q R S T U V W X Y Z