Song name
# A B C D E F G H I J K L M N O P Q R S T U V W X Y Z

Kinch - Bad Dreams tab

Bad Dreams - Kinch
www.kinchmusic.co.uk
www.myspace.com/kinchuk

         [INTRO]                                        Play 4 Times.
e|-x-x-||--8--10-10-10-10-10-8---x-x-x-x-10-10-10-10-10-8--0-7-0--||
B|-x-x-||--10-10-10-10-10-10-10--x-x-x-x-10-10-10-10-10-10-0-8-0--||
G|-x-x-||.-10-10-10-10-10-10-10--x-x-x-x-10-10-10-10-10-10-0-7-0-.||
D|-----||.-------------------------------------------------------.||
A|-----||---------------------------------------------------------||
E|-----||---------------------------------------------------------||



[VERSE]
e|-8-------------|-7-8------------|-7-8----------|-7-8------|-8\--||
B|-8-------------|-8-10-----------|-8-8----------|-8-10-----|-10\-||
G|-9-------------|-7-10-----------|-7-9----------|-7-10-----|-10\-||
D|-10------------|---10-----------|---10---------|---10-----|-10\-||
A|-10------------|---8------------|---10---------|---8------|-8\--||
E|-8-------------|----------------|---8----------|----------|-----||
   Intentionally    A quiet night   A show with    Your feet  but i  
   asking to make   out quickly     the help of a  may be     know whats
   sure i know      turns in to     bottle or two  dancing    coming soon



[CHORUS]
e|-8--8---8--8--8---8--8--8---8--8---7---8--8---8--8--8---8--8--8---8--8--|
B|-8--8---8--8--8---8--8--8---8--8---8---10-10--10-10-10--10-10-10--10-10-|
G|-9--9---9--9--9---9--9--9---9--9---7---10-10--10-10-10--10-10-10--10-10-|
D|-10-10--10-10-10--10-10-10--10-10------10-10--10-10-10--10-10-10--10-10-|
A|-10-10--10-10-10--10-10-10--10-10------8--8---8--8--8---8--8--8---8--8--|
E|-8--8---8--8--8---8--8--8---8--8----------------------------------------|
   Don't let go bad dreams keep      me  awake
                                           _____       _            
e|-7--8--8---8--8--8---10-10--10-10-10-x-||_   _|-----| |-------------|
B|-8--8--8---8--8--8---12-12--12-12-12-x-|  | |  _ __ | |_ _ __ ___---|
G|-7--9--9---9--9--9---12-12--12-12-12-x-|  | | | '_ \| __| '__/ _ \--|
D|----10-10--10-10-10--12-12--12-12-12---| _| |_| | | | |_| | | (_) |-| x2
A|----10-10--10-10-10--10-10--10-10-10---||_____|_| |_|\__|_|  \___/--|
E|----8--8---8--8--8---------------------|----------------------------|
   Don't let go bad       dreams   keep   me  awake



[VERSE]
e|-8-------------|-7-8------------|-7-8----------|-7-8------|-8\--||
B|-8-------------|-8-10-----------|-8-8----------|-8-10-----|-10\-||
G|-9-------------|-7-10-----------|-7-9----------|-7-10-----|-10\-||
D|-10------------|---10-----------|---10---------|---10-----|-10\-||
A|-10------------|---8------------|---10---------|---8------|-8\--||
E|-8-------------|----------------|---8----------|----------|-----||
 Your thoughts    Then gaffa       In our house   Problems become 
 held together    taped with       you'd          your ambition
 with lies        fiction          fantasise



[CHORUS]
e|-8--8---8--8--8---8--8--8---8--8---7---8--8---8--8--8---8--8--8---8--8--|
B|-8--8---8--8--8---8--8--8---8--8---8---10-10--10-10-10--10-10-10--10-10-|
G|-9--9---9--9--9---9--9--9---9--9---7---10-10--10-10-10--10-10-10--10-10-|
D|-10-10--10-10-10--10-10-10--10-10------10-10--10-10-10--10-10-10--10-10-|
A|-10-10--10-10-10--10-10-10--10-10------8--8---8--8--8---8--8--8---8--8--|
E|-8--8---8--8--8---8--8--8---8--8----------------------------------------|
   Don't let go bad dreams keep      me  awake
                                           _____       _            
e|-7--8--8---8--8--8---10-10--10-10-10-x-||_   _|-----| |-------------|
B|-8--8--8---8--8--8---12-12--12-12-12-x-|  | |  _ __ | |_ _ __ ___---|
G|-7--9--9---9--9--9---12-12--12-12-12-x-|  | | | '_ \| __| '__/ _ \--| 
D|----10-10--10-10-10--12-12--12-12-12---| _| |_| | | | |_| | | (_) |-| x4
A|----10-10--10-10-10--10-10--10-10-10---||_____|_| |_|\__|_|  \___/--|
E|----8--8---8--8--8---------------------|----------------------------|
   Don't let go bad       dreams   keep   me  awake


[BRIDGE]
e|-8-----------|-12------------|-8-------------|-12-------------------|
B|-10----------|-10------------|-10------------|-10-------------------|
G|-10----------|-12------------|-10------------|-12-------------------|
D|-10----------|---------------|-10------------|----------------------|
A|-8-----------|---------------|-8-------------|----------------------|
E|-------------|---------------|---------------|----------------------|
   Lights go    cant give more,  And i take it  are no more, 
   down because more than just   that you       more than 
   i            an answer                       just a chancer
   
e||--------------|-------|----|-----------12-|-------|-----||-8-------10-----||
B||-----------10-|-------|----|-----10-------|----10-|-----||-10------12-----||
G||.----10-------|----10-|----|--12----12----|-12----|----.||-10------12-----||
D||.-10----10----|-10----|-x6-|--------------|-------|-x6-.||-10-x16--12-x16-||
A||--------------|-------|----|--------------|-------|-----||-8-------10-----||
E||--------------|-------|----|--------------|-------|-----||----------------||

[CHORUS x3, Chris sings Matty's vocals the first time.]
e|-8--8---8--8--8---8--8--8---8--8---7---8--8---8--8--8---8--8--8---8--8--|
B|-8--8---8--8--8---8--8--8---8--8---8---10-10--10-10-10--10-10-10--10-10-|
G|-9--9---9--9--9---9--9--9---9--9---7---10-10--10-10-10--10-10-10--10-10-|
D|-10-10--10-10-10--10-10-10--10-10------10-10--10-10-10--10-10-10--10-10-|
A|-10-10--10-10-10--10-10-10--10-10------8--8---8--8--8---8--8--8---8--8--|
E|-8--8---8--8--8---8--8--8---8--8----------------------------------------|
MATTY: Don't let go bad dreams keep      me  awake
CHRIS: I tell you its nothing and        This viscious circle 
       you know it too                   becomes nothing new
                                           _____       _            
e|-7--8--8---8--8--8---10-10--10-10-10-x-||_   _|-----| |-------------|
B|-8--8--8---8--8--8---12-12--12-12-12-x-|  | |  _ __ | |_ _ __ ___---|
G|-7--9--9---9--9--9---12-12--12-12-12-x-|  | | | '_ \| __| '__/ _ \--| 
D|----10-10--10-10-10--12-12--12-12-12---| _| |_| | | | |_| | | (_) |-| x1
A|----10-10--10-10-10--10-10--10-10-10---||_____|_| |_|\__|_|  \___/--|
E|----8--8---8--8--8---------------------|----------------------------|
MATTY: Don't let go bad       dreams   keep   me  awake
CHRIS: I tell you its nothing and        This viscious circle 
       you know it too                   but ooooh
       
[CHORUS W/O GUITAR]
MATTY: Don't let go bad dreams keep me awake
       Don't let go bad dreams keep me awake
CHRIS: (I tell you its nothing and you know it too)
       (This viscious circle becomes nothing new)
       (I tell you its nothing and you know it too)
       (This viscious circle but oooh)

This was tabbed before the final release of the track, 
it's unlikely that it will still be as accurate in a year or so.
Tap to rate this tab
# A B C D E F G H I J K L M N O P Q R S T U V W X Y Z