Song name
# A B C D E F G H I J K L M N O P Q R S T U V W X Y Z

Kind Of Like Spitting - I Know You Heard Me The First Time tab

-------------------------------------------------------------------------------
			     I know you heard me the first time - Kind of Like Spitting
-------------------------------------------------------------------------------
Tabbed by: sponj
Email: david.lino@gmail.com

Tuning: standart

the tab is not 100% accurate, there are a lot of arrangements played by an electric 
that can't be picked out
and i'm not sure if he plays it in regular tuning or half-step down, but i've tabbed 
of it!
hope you like it.

intro
e|----------------------|
B|--7---5-5-------------|
G|--7---6-6-------------|
D|--7---6-6-------6~----|
A|----------------------|
E|----------------------|
verse (without some arrangements)
                                                meddley 1                  meddley 2
e|-------------------------7(only first time)||-------------------------||----7-6-4-2--|
B|--7--5-5--9-9--5-5--7~---5-----------------||----5\4/5---------------5||---5---------|
G|--7--6-6--9-9--6-6--7~---6-----------------||---6-----6\5/6-----6\5/6-||--6----------|
D|--7--6-6--9-9--6-6--7~---6-----------------||--6-----------6\5/6------||-6-----------|
A|-------------------------------------------||-------------------------||-------------|
E|-------------------------------------------||-------------------------||-------------|
chorus              "so i light up in a field.."
e|--------------------7-6-4-2--6-----7---------12-------|
B|--0----------------5---------7----9-9------11--11-----|
G|------------------6----------8---9---9---11------11---|
D|--2--------------6-----------8--9------11-------------|
A|------------------------------------------------------|
E|------------------------------------------------------|
pos-chorus
e|----0-2-|--------------0---------------------7--(9)---|
B|-----4--|--2-4p2-...--2-4...-----4h5p0----5p4---(9)---|
G|--------|-4----------4-----------------(6)------(9)---|
D|-2p1----|----------------------0----------------(9)---|
A|--------|---------------------------------------------|
E|--------|---------------------------------------------|

e|----------------------------7------4------5------7-(7/10\7)---|
B|--7---5-5--9-9--5-5----------4h5-----4h5----4h5----4h5--------|
G|--7---6-6--9-9--6-6-------------4-------4------4------4-------|
D|--7---6-6--9-9--6-6--------------6-------6------6------6------|
A|--------------------------------------------------------------|
E|--------------------------------------------------------------|
Tap to rate this tab
# A B C D E F G H I J K L M N O P Q R S T U V W X Y Z