Song name
# A B C D E F G H I J K L M N O P Q R S T U V W X Y Z

Kind Of Like Spitting - Song For You tab

Artist: Kind of Like Spitting
Track: Song for you (Leon Russell cover)
Tabber: Andrew Biles

This tab is taken from the version on Mike Dutkewych's beard shaving video.  There was 
a version of this on the 'Live in Seattle' CD, but it may be different - I can't remember.

Standard tuning

Intro
|-------------------------------|
|-8----8-----------------5------|
|-9----9---7---/9\7-\6---5--7---|
|-9----9---7---/9\7-\6---7--9---|
|-7----6-----------------7--9---|
|---------------------------7---|

Verse
|------------------------------------------------------|
|-8----------------------------------------------------|
|-9----------------------------------9-----------------|
|-9----------------------------------9--------------9--|
|-7----------------------------------6--------------5--|
|------------------------------------------------------|
     I've been a lot of places in my life from time

|---------------------------------------------------------|
|---------------------------------------------------------|
|---------------------------------------------------------|
|---------------------------------------7----------7/9-10-|
|---------------------------------------7----------7/9-10-|
|---------------------------------------5--------------8--|
 Sang a lot of songs and I've made some bad rhymes

|-------------------------------------------------------------|
|-------------------------------------------------------------|
|-------------------------------------------------------------|
|------------------------9-------10---------------------9-----|
|------------------------9-------10---------------------9-----|
|------------------------7-------8----------------------7-----|
  I Acted out my love in stages.  With 10,000 people watching

|----------------------------------------------------3--|
|----------------------------------------------------x--|
|----------------------------------------------------4--|
|-10-------------------------------------------------5--|
|-10-------------------------------------------------5--|
|-8--------------------------------------------------3--|
    Now we're alone and I'm singing my song for you


Repeat verse (different lyrics)


|--------------------------------------------------------------------------|
|-------8------------------------------------------------------------------|
|-------9------------------------------------------------------------------|
|-------9------------------9-------------9-----------------------------11--|
|-------7------------------6-------------5-----------------------------12--|
|--------------------------------------------------------------------------|
And you taught me precious secrets, of a love and with-holding nothing

|-----------------------------------------|
|-----------------------------------------|
|-----------------------------------------|
|-10-------------------------------5------|
|-10-------------------------------5------|
|-8---------------7----------------3------|
     You came out front when I was hiding

|--------------------------------------------------------------|
|-----8--------------------------------------------------------|
|-----9-------------------------------------------------6------|
|-----9------------9-----------------9------------------7------|
|-----7------------6-----------------5------------------4------|
|--------------------------------------------------------------|
  Now I am so much better, if all my words don't come together

|-------------------------------------------------------------------------------|
|------------------------------------------------------------4-4---/-3---/2-\---|
|-5-----------------------------------------------------4----4---4-----4--------|
|-5-----------------------------------------------------4-----------------------|
|-3-----------------------------------------------------2-----------------------|
|-------------------------------------------------------------------------------|
    Listen to the melody, because my love is in there hiding


Repeat verse chords


any questions? andrewbiles@hotmail.com
Tap to rate this tab
# A B C D E F G H I J K L M N O P Q R S T U V W X Y Z