Song name
# A B C D E F G H I J K L M N O P Q R S T U V W X Y Z

Kind Of Like Spitting - Hook tab

Kind of Like Spitting - Hook

This is the first track off One Hundred Dollar Room, and there are lots of variations of 
throughout the album, but this is the one you hear first.

e|---5-------------------------------5-------4-------4---------9-----------|
B|----6-------------------10----------6-------5-------5---------10----9__9_|
G|-----6---9------------11--11-----7---7---6---6---6---6----11----11--8__8_|
D|--7-----9-/11-9-----11------11--7-------6-------6-------11----------6__6_|
A|-7-----7--/9----11-9----------\5-------4-------4------/9------------7__7_|
E|5------------------------------------------------------------------------|

Then the second time it's the same chords, he just hits different strings, but it's 
much the same progression.

e|-------------------------------------------4-------4---------------------|
B|------------------------10--------6---------5-------5-------10------9____|
G|---6-----9------------11--11-----7-7-----6---6---6---6----11--11----8____|
D|--7-7---9-/11-9-----11----------7---7---6-------6-------11------11--6____|
A|-7---7-7--/9---11--9--------9-\5-------4-------4------/9------------7____|
E|5-----5------------------------------------------------------------------|
Tap to rate this tab
# A B C D E F G H I J K L M N O P Q R S T U V W X Y Z