Song name
# A B C D E F G H I J K L M N O P Q R S T U V W X Y Z

Kind Of Like Spitting - Following Days tab

Kind of Like Spitting - Following Days

This is a great, short and catchy tune.  I could see it really livening the crowd at
their gigs up.  Anyway, simple track, so I'm sure you'll be able to play it after the
first or second go.

Standard Tuning

Verse (strum)
|-6--------6--------6----6----4-----4----|
|-6--------7--------6----7----6-----4----|
|-6--------8--------6----8----6-----5----|
|-8--------8--------8----8----6-----6----|
|-8--------6--------8----6----4-----6----|
|-6-----------------6---------------4----|


Chorus (strum)
|-------------6--------|
|-9-----11----6--------|
|-10----11----6--------|
|-10----11----8--------|
|-8-----9-----8--------|
|-------------6--------|

Verse (strum)
|-6--------6--------6----6----4-----4----|
|-6--------7--------6----7----6-----4----|
|-6--------8--------6----8----6-----5----|
|-8--------8--------8----8----6-----6----|
|-8--------6--------8----6----4-----6----|
|-6-----------------6---------------4----|


Chorus (strum)
|-------------6--------|
|-9-----11----6--------|
|-10----11----6--------|
|-10----11----8--------|
|-8-----9-----8--------|
|-------------6--------|

Middle 8
|-------------------|
|-------------------|
|-------------------|
|-8----6----4-------|
|-8----6----4-------|
|-6----4----2-------|

Bridge
|------------------------|
|------------------------|
|-6---------6------------|
|-6---------6--8----7----|
|-4---------3--8----7----|
|--------------6----5----|

Verse (strum)
|-6--------6--------6----6----4-----4----|
|-6--------7--------6----7----6-----4----|
|-6--------8--------6----8----6-----5----|
|-8--------8--------8----8----6-----6----|
|-8--------6--------8----6----4-----6----|
|-6-----------------6---------------4----|
                                    ^ One strum

any questions? andrewbiles@hotmail.com
Tap to rate this tab
# A B C D E F G H I J K L M N O P Q R S T U V W X Y Z