Song name
# A B C D E F G H I J K L M N O P Q R S T U V W X Y Z

Kind Of Like Spitting - Havent Been To The Ocean Sense tab

Help us improve GuitareTab! Take a short survey!
Band: Kind of Like Spitting
Track: Haven't been to the ocean sense
Album: Nothing makes sense without it

Not a ton to this track, although there is a second guitar towards the end that I 
included (maybe at a later date).  Nice gentle one to play and sing along to.

Standard Tuning

|-0----0-0-0-0--|
|-3----3-3-1-1--|
|-0----0-0-0-2--|
|-2----2-2-0-3--|
|-3----3-3---3--|
|---------------|


|----------------------------0------|
|-1---------0-----------------------|
|---2---------5--5---------4---5----|
|-----0-3/5------5---0-3/5-------5--|
|----------------0------------------|
|-----------------------------------|


|-0----0-0-0-0--------|
|-3----3-3-1-1--1---1-|
|-0----0-0-0-2----2---|
|-2----2-2-0-3--------|
|-3----3-3---3--------|
|---------------------|


|-0--------------------------0------|
|---1-------0----1^-----------------|
|-------------5--0---------4---5----|
|-----0-3/5------2---0-3/5-------5--|
|-----------------------------------|
|-----------------------------------|


|-0----0-0-0-0--3-3-0--|
|-3----3-3-1-1--1-1-1--|
|-0----0-0-0-2--2-2-0--|
|-2----2-2-0-3--x-x-0--|
|-3----3-3---3--3-3----|
|----------------------|


|-0----0-0-0-0--------|
|-3----3-3-1-1--1---1-|
|-0----0-0-0-2----2---|
|-2----2-2-0-3--------|
|-3----3-3---3--------|
|---------------------|

any questions? andrewbiles@hotmail.com
Related for Havent Been To The Ocean Sense tab