Song name
# A B C D E F G H I J K L M N O P Q R S T U V W X Y Z

Kind Of Like Spitting - Your Favorite Actor tab

Help us improve GuitareTab! Take a short survey!
This is a pretty simple song to play, but it's still amazing
tuning: Standard

This is the main riff throughout:
e|-----4--4-----4--4-----------0--0h2p0----------------4--4-|
B|-----5--5-----5--5-----------------------0h2p0-------5--5-|
G|-----4--4-----4--4--------2-----------2--------------4--4-|
D|-----------------------4-----------------------2----------|
A|--0-------0-0-------------------------------------0-------|
E|--------------------2-------------------------------------|


This is what the guitar plays behind the violin:
e|------4-5-------4-5------4-5---|
B|-------------------------------|
G|----2---------2--------2-------|
D|--0----------------------------|
A|------------4--------2---------|
E|-------------------------------|
Related for Your Favorite Actor tab