Song name
# A B C D E F G H I J K L M N O P Q R S T U V W X Y Z

Kind Of Like Spitting - Holding Patterns tab

Help us improve GuitareTab! Take a short survey!
Artist: Kind of Like Spitting
Track: Holding Patterns
Album: The Thrill of the Hunt
Tabber: Andrew Biles

Just one thing about this tab, the majority of the chords are strummed 8 times, but I've
different sized gaps where they're strummed more or less, so hopefully it'll be easy
to work out when playing along.  the only two chords I'm not really sure about are two 
the end (2,2,2,2,x,x and 2,2,2,1,x,x) as they sound like the bass note is running
but that was the closest I could get.

Drop D - Capo 2

|-----0-------0-------0-------0-------0-------0-------0-------0---|
|-----0-------0-------0-------0-------0-------0-------0-------0---|
|---1---1---1---1---1---1---1---1---1---1---1---1---1---1---1---1-|
|-----------------------------------------------------------------|
|-----------------------------------------------------------------|
|-4-------4-------4-------4-------0-------0-------0-------0-------|


|---------------------------------------------------0---------------0---|
|-----------------------------------------------------------------------|
|-----------------------------------------1-2-1---1---1---1-2-1---1---1-|
|-4-----0-----2-----6-----7-----11------2-------2-------2-------2-------|
|-4-----0-----2-----4-----5-----9---------------------------------------|
|-4-----0-----2---------------------------------------------------------|


|-------------------------------------------0---------------0-----------|
|-----------------------------------------------------------------------|
|-----------------------------------------1---1---1-2-1---1---1---1-2-1-|
|-4-----0-----2-----6-----7-----11------2-------2-------2-------2-------|
|-4-----0-----2-----4-----5-----9---------------------------------------|
|-4-----0-----2---------------------------------------------------------|


|--------------------------------------|
|--------------------------------------|
|---------------------------------2----|
|-4-----0----------4-----0--------2----|
|-4-----0----------4-----0--------0----|
|-4-----0----------4-----0--------0----|


|-----0-------0-------0-------0-------0-------0-------0-------0---|
|-----0-------0-------0-------0-------0-------0-------0-------0---|
|---1---1---1---1---1---1---1---1---1---1---1---1---1---1---1---1-|
|-----------------------------------------------------------------|
|-----------------------------------------------------------------|
|-4-------4-------4-------4-------0-------0-------0-------0-------|


|-----------------------------------------------------------------|
|-----------------------------------------------------------------|
|-------------------2---1---------------------------------2---1---|
|-4-----0-----2-----2---2---0-----2-----4-----0-----2-----2---2---|
|-4-----0-----2-----2---2---0-----2-----4-----0-----2-----2---2---|
|-4-----0-----2-----2---2---0-----2-----4-----0-----2-----2---2---|


--------------------------------|
--------------------------------|
--------------------------------|
-0-----2-----2----------2-2-2-2-|
-0-----2-----2----------2-2-2-2-|
-0-----0-----2----------2-0-2-3-|


|---------------------------------------------------------------|
|---------------------------------------------------------------|
|---------------------------------------------------------------|
|-4-----0----------4-----0-----0-----4-----0------------4-------|
|-4-----0----------4-----0-----4-----4-----4------------4-----0-|
|-4-----0----------4-----0-----0-----4-----0------------4-----0-|
Related for Holding Patterns tab