Song name
# A B C D E F G H I J K L M N O P Q R S T U V W X Y Z

Kind Of Like Spitting - 26 Is Too Soon tab

26 is Too Soon

This song has a cool picking pattern, but it's important to get that right. Make sure 
hit those strings on the first hit with a down

stroke and the bass note afterwards on the up stroke. This goes through out most of the song

Intro:
e|-----------------------------------------------------------------------------------------|
B|-----------------------------------------------6---6---6---6-----7-8-10-/12--------------|
G|-11----11----11----11---11----11----11----11---7---7---7---7----------------12--9/10/11--|
D|-0-----0-----0-----0----0-----0-----0-----0----7---7---7---7-0-/5---------12----0--------|
A|-12-12-12-12-12-12-12-0-10-10-10-10-10-10-10-0-5-5-5-5-5-5-5--------------------10/11/12-|
E|-----------------------------------------------------------------------------------------|

Intro Pt II:
e|------------------------------------------------------------------------------|
B|--------------------------------------------6---6---6---6-----7-8-10-/12---14-|
G|----11----11----11---11----11----11----11---7---7---7---7---------------------|
D|----0-----0-----0----0-----0-----0-----0----7---7---7---7-0-/5-----------10---|
A|-12-12-12-12-12-12-0-10-10-10-10-10-10-10-0-5-5-5-5-5-5-5---------------------|
E|------------------------------------------------------------------------------|


Verse:
e|-------------------------------------------------|X2
B|--------------------------7-8-10-/12-------------|
G|-11----11----11----11----------------12-9/10/11--|
D|-0-----0-----0-----0--0-5----------12---0--------|
A|-12-12-12-12-12-12-12-------------------10/11/12-|
E|-------------------------------------------------|

e|-----------------------------------------------------------------------------|
B|-----------------------------------------------------------------------------|
G|-11----11----11----11---0-----0-----0-----0----6---6---6---6---6---6---6---6-|
D|-0-----0-----0-----0----9-----9-----9-----9----7---7---7---7---7---7---7---7-|
A|-12-12-12-12-12-12-12-0-10-10-10-10-10-10-10-0-7---7---7---7---7---7---7---7-|
E|-----------------------------------------------5-5-5-5-5-5-5-5-5-5-5-5-5-5-5-|

Strum these chords a long to the chorus (listen for the timing)


G                   A          Gm7           A
plug the same three songs from twenty years ago oh, oh, oh, oh

This interlude's a bit tricky for the left hand. You can hear, Ben kind of messes up at 
point, but you can tell what he was trying to

play.
Interlude:
e|-------------------------------------------------------------------------------|
B|------------------------12----10----12----14---------------------8---8---7---5-|
G|-11----11----11----11---10----10----10----10-4/5/6---6---6---6---6---6---6---6-|
D|-0-----0-----0-----0----x-----x-----x-----x----------5---5---5---x---x---x---x-|
A|-12-12-12-12-12-12-12---12-12-10-10-10-10-10-5/6/7-7-7-7-7-7-7-7-7-7-7-7-7-7-7-|
E|-------------------------------------------------------------------------------|


The second Verse is exactly the same as the first:
e|-------------------------------------------------|X2
B|--------------------------7-8-10-/12-------------|
G|-11----11----11----11----------------12-9/10/11--|
D|-0-----0-----0-----0--0-5----------12---0--------|
A|-12-12-12-12-12-12-12-------------------10/11/12-|
E|-------------------------------------------------|

e|-----------------------------------------------------------------------------|
B|-----------------------------------------------------------------------------|
G|-11----11----11----11---0-----0-----0-----0----6---6---6---6---6---6---6---6-|
D|-0-----0-----0-----0----9-----9-----9-----9----7---7---7---7---7---7---7---7-|
A|-12-12-12-12-12-12-12-0-10-10-10-10-10-10-10-0-7---7---7---7---7---7---7---7-|
E|-----------------------------------------------5-5-5-5-5-5-5-5-5-5-5-5-5-5-5-|


Chorus 2 ("Hope I'm not enjoying this wrong"):

e|--------------------------------|
B|--------------------------------|
G|---0-0-0-0-0-0-0-0-0-0-0-0-0-0--|
D|----4-4-4-4-4-4-4-4-4-4-4-4-4-4-|
A|--5-----------------------------|
E|-3------------------------------|
Over the top of that, the slide guitar just slides slowly to the 12th fret on the B 
twice. Listen for the timing

After the 2nd chorus, jump back into the intro riff with this slide guitar over it:


B|10\8___7/8\7/8\7_____/7_______\

And that's the whole song!
Tap to rate this tab
# A B C D E F G H I J K L M N O P Q R S T U V W X Y Z