Guitaretab - guitar tabs
Song name
# A B C D E F G H I J K L M N O P Q R S T U V W X Y Z

Kinesis - Billboard Beauty tab

Kinesis
Billboard Beauty
Tabbed By Chris

http://www.kinesis-official.co.uk

The intro/verse riff I play on the E (nicer sound) but I think it's 
on the A, whatever it's played doesn't really matter

Intro Clean
e|-----------------------------------------|
B|-----------------------------------------|
G|-----------------------------------------|
D|-11111111-12121212-7777-5522-------------|
A|-11111111-12121212-7777-5522-------------|
E|--9 91010-10101010-5555-0000-------------|

Pre verse   Distortion comes in on the A5
e|-----------------------------------------|
B|-----------------------------------------|
G|-----------------------------------------|
D|-11111111-12121212-7777-5522-------------|
A|-11111111-12121212-7777-5522-------------|
E|--9 91010-10101010-5555-0000-------------|

Verse
e|-----------------------------------------|
B|-----------------------------------------|
G|-----------------------------------------|
D|-11111111-12121212-7777-5522-------------|
A|-11111111-12121212-7777-5522-------------|
E|--9 91010-10101010-5555-0000-------------|

Pre Chorus  Distortion again comes in on A5
e|-----------------------------------------|
B|-----------------------------------------|
G|-----------------------------------------|
D|-11111111-12121212-7777-5522-------------|
A|-11111111-12121212-7777-5522-------------|
E|--9 91010-10101010-5555-0000-------------|
[ Tab from: http://www.guitaretab.com/k/kinesis/32792.html ]
Chorus Distortion
e|-----------------------------------------|
B|-----------------------------------------|
G|-------777--------6666-------------------|
D|--4444-777-77777--6666-------------------|
A|--4444-555-77777--4444-------------------|
E|--2222-----55555-------------------------|

e|-----------------------------------------|
B|-----------------------------------------|
G|--------7777-----------------------------|
D|--4444--7777--77-6-7-9-------------------|
A|--4444--5555--77-6-7-9-------------------|
E|--2222--------55-4-5-7-------------------|

e|-----------------------------------------|
B|-----------------------------------------|
G|-----------------------------------------|
D|--7------7------7------7-----------------|
A|--7------7------7------7-----------------|
E|--5p0----5p0----5p0----5p0---------------|

Interlude
e|-----------------------------------------|
B|-----------------------------------------|
G|--6-6-6-6-6-6-6-6------------------------|
D|------------------7-7-7-7-7-7-7-7--------|
A|-----------------------------------------|
E|-----------------------------------------|

Distortion
e|-----------------------------------------|
B|-----------------------------------------|
G|-77777777-77777777-----------------------|
D|-77777777-77777777-----------------------|
A|-55555555-44444444-----------------------|
E|-----------------------------------------|

Outro
e|-----------------------------------------|
B|-----------------------------------------|
G|--6-6-6-6-6-6-6-6------------------------|
D|------------------7-7-7-7-7-7-7-7--------|
A|-----------------------------------------|
E|-----------------------------------------|

e|--------|
B|--------|
G|-6b-----|
D|--------|
A|--------|
E|--------|
Related for Billboard Beauty tab