Song name
# A B C D E F G H I J K L M N O P Q R S T U V W X Y Z

Kinesis - And They Obey tab

intro
e-----------|
b-----------|
g------8888-|
d-7777-7777-|
a-6666-6666-|
e-5555------|

verse
A minor,C major,F major,Emajor
e-0--------------1--------0-|
b-1------1-------2--------0-|
g-2------0-------3--------1-|
d-2------2-------3--------2-| x2
a-0------3----------------2-|
e-------------------------0-|
pre chorus
not sure though

e-15bh17---15bh17----15h7p15h17p15h17-|
b-------17--------17------------------|
g-------------------------------------|
d-------------------------------------|
a-------------------------------------|
e-------------------------------------|

chorus
e-------------|
b-------------|
g-------------|
d-10--5--8--3-|
a-10--5--8--3-| x2
e-8---3--6--1-|

then intro
then solo
e----------------------------4---45-|
b---------------5-56568--5656--5----|
g---4545-7-5757--7-----7------------|
d-7---------------------------------| x2
a-----------------------------------|
e-----------------------------------|
then verse
then pre chorus
then chorus
then inro
then verse
then chorus x2
then intro
and thats done :)
Tap to rate this tab
# A B C D E F G H I J K L M N O P Q R S T U V W X Y Z