Song name
# A B C D E F G H I J K L M N O P Q R S T U V W X Y Z

Kinesis - Forever Reeling tab

Guitar 1
e--------------------------------|
B--------------------------------|
G--------------------------------|
D------6-6-6---6-6-6---6-6-6-----|
A---7-------------------------5--|
E--------------------------------|

Guitar 2
e-----------------------------------------------|
B-----------------------------------------------|
G---x-x-x-x--9-9-9-9-9-9-9-9--------------------|
D---x-x-x-x--9-9-9-9-9-9-9-9---7-7-7-7-7-7-7-7--|
A---x-x-x-x--7-7-7-7-7-7-7-7---7-7-7-7-7-7-7-7--|
E------------------------------5-5-5-5-5-5-5-5--|   x2


Guitar 1
e---------------------------------------------------------------------------|
B---------------------------------------------------------------------------|
G---------------------------------------------------------------------------|
D------6-6-6---6-6-6---6-6-6------------10-10-10---10-10-10---10-10-12---9--|
A---7-------------------------5-----12--------------------------------------|
E---------------------------------------------------------------------------|


Verse
e-------------------------------------------|
B-----9---9---9---9-----8---8---8---8---17/-|
G-------9---9---9---------9---9---9---------|
D-------------------------------------------|
A-------------------------------------------|
E-------------------------------------------|

e---------------------------------------------------------|
B-----9---9---9---9-----8---8---8---8----13---13--13--13--|
G-------9---9---9---------9---9---9---------14--14--14----|
D---------------------------------------------------------|
A---------------------------------------------------------|
E---------------------------------------------------------|


e---------------------------------------------------------------------|
B---------------------------------------------------------------------|
G---------------------------------------------------------------------|
D------6-6-6---6-6-6---6-6--------6-6-6---6-6-6---6-6--7-7-7--9-9-9---|
A---7----------------------5---7--------------------------------------|
E---------------------------------------------------------------------|

Chorus
e----------------------------------------|
b----------------------------------------|
g-55555555-44444444-------------22222222-|
d-55555555-44444444-22-22-22-22-22222222-| x2
a-33333333-22222222-22-22-22-22-00000000-|
E-------------------00-00-00-00----------|

e------------|
b------------|
g-55555555-8-|
d-55555555-8-|
a-33333333-6-|
E------------|


e--------------------------------------------------------------------------|
B--------------------------------------------------------------------------|
G--------------------------------------------------------------------------|
D------6-6-6---7-7-7---9-9-9p7--------10-10-10---12-12-12---14-14-14p12----|
A---7----------------------------12----------------------------------------|
E--------------------------------------------------------------------------|

All guitars end on E
Tap to rate this tab
# A B C D E F G H I J K L M N O P Q R S T U V W X Y Z