Guitaretab - guitar tabs
Song name
# A B C D E F G H I J K L M N O P Q R S T U V W X Y Z

Kinesis - Perception Management tab

intro
e-------------|
b-------------|
g-7--9--10-12-|
d-------------|
a-5--7--8--10-|
d-------------|


e----------------------------------|
b----------------------------------|
g----------------------------------|
d------------------------------33--|
a-55-55-55-55-33--55-55-55-55------|
d----------------------------------|

verse
e-----------------------------|
b-----------------------------|
g-7p0-6p0-5p0-4p0-3p0-2p0-1p0-|
d-----------------------------|x3
a-----------------------------|
d-----------------------------|

e-------------------------------|
b-------------------------------|
g-7p0-8p0-9p0-10p0-11p0-12p0-13-|
d-------------------------------|
a-------------------------------|
d-------------------------------|
[ Tab from: http://www.guitaretab.com/k/kinesis/69242.html ]
e-------------------------------|
b-8p0-7p0-6p0-5p0-4p0-3p0-2p0-1-|
g-------------------------------|
d-------------------------------|x2
a-------------------------------|
d-------------------------------|

e-----------------------------|
b-----------------------------|
g-7p0-6p0-5p0-4p0-3p0-2p0-1p0-|
d-----------------------------|x2
a-----------------------------|
d-----------------------------|

chorus

e-2-------|
b-3-------|
g-2-------|
d-0-3-8-5-|
a-0-3-8-5-|
e-0-3-8-5-|

middle bit not sure, just variation of main riff

ending
e-----------7----------9----------11---------7--|
b-----------9b---------11b--------13b--------9b-|
g-----------------------------------------------|
d-----------------------------------------------|
a-5--5--5-5----5-5-5-5---5-5-5-5-----5-5-5-5----|
e---0--0-0-0----0--0-0-0--0-0-0-0-----0-0-0-0---|
Related for Perception Management tab
Advertisement will be closed in 10 seconds