Song name
# A B C D E F G H I J K L M N O P Q R S T U V W X Y Z

Kinesis - One Way Mirror tab

enjoy another class song

verse
e--------------------------|
b-0-0-0-0-0-0-0-0-0-0-0--0-|
g-8-8-7-7-8-8-7-7-8-7-8-10-|
d--------------------------|
a--------------------------|
e--------------------------|

e-----------------------------------|
b-----------------------------------|
g-------------------7-7-5-5-2-2-3-3-|
d-3-3-3-3--7-7-7-7--7-7-5-5-2-2-3-3-|
a-3-3-3-3--7-7-7-7--5-5-3-3-0-0-1-1-|
e-1-1-1-1--5-5-5-5------------------|

before the chorus other guitarist plays this
e------------7-|
b-----------7--|
g----------7---|
d-x-x-x-x------|
a-x-x-x-x------|
e--------------|

chorus
e---------------------------------|
b---------------------------------|
g-7-7-7-7---------3-3-3-3-2-2-2-2-|
d-7-7-7-7-5-5-5-5-3-3-3-3-2-2-2-2-|
a-5-5-5-5-5-5-5-5-1-1-1-1-0-0-0-0-|
e---------3-3-3-3-----------------|

solo
e-------------8-10-8-|
b-------7-8-10-------|
g-7-8-10-------------|
d--------------------| something like that the last two is played a couple
a--------------------| of times
e--------------------|

e----------------------------------------------------|
b----------------------------------------------------|
g-10-10-10-10-10-10-10-10-14-14-14-14-14-14-14-14-14-|
d----------------------------------------------------|
a-8--8--8--8--8--8--8--8--12-12-12-12-12-12-12-12-12-|
e----------------------------------------------------|

then fisrts bit again
then the frist riif but with flanger on
Tap to rate this tab
# A B C D E F G H I J K L M N O P Q R S T U V W X Y Z