Song name
# A B C D E F G H I J K L M N O P Q R S T U V W X Y Z

Kinesis - You Are Being Lied To tab

----------------------------------------------------------------------------
	             YOU ARE BEING LIED TO - Kinesis
----------------------------------------------------------------------------
Tabbed by: Chris Colyer
Email: csc501:york.ac.uk

Tuning: Standard

Intro: Various Feedback (around G, then E-A#)

7/8 time.

Verse:
This is the sound of a culture being drowned in its own scum,in its own scum
e|-----------------------------------------------------------------------|
B|-----------------------------------------------------------------------|
G|-----------------------------------------------------------------------|x2
D|--7777777----------------3/555-55---3/555-33---------------------------|
A|--5555555--8888888-------3/555-55---3/555-11---------------------------|
E|-----------6666666-----0/1/333-33-0/1/333------------------------------|
Your Being Lied To by those who should protect you (repeat)
e|---------------------------------------------------------------------------|
B|---------------------------------------------------------------------------|
G|---------------------------------------------------------------------------|
D|-4/55555555\3333333\2222222------------------------------------------------|
A|---------------------------------------------------------------------------|
E|---------------------------0/1/3333-3-3333333/6666666\10000001/33-3--------|

Chorus:
((You're Being Lied To) X3, by those who should protect you)x2
e|-------------------------------------------------------------------------|
B|-------------------------------------------------------------------------|
G|------------------5555555------------------------------5555555-----------|
D|--5555555-8888888-5555555----3/5555-5--5555555-8888888-5555555---3/5555-5|
A|--5555555-8888888-3333333----3/5555-5--5555555-8888888-3333333---3/5555-5|
E|--3333333-6666666----------0/1/3333-3--3333333-6666666---------0/1/3333-3|

Feedback Interlude (G-D)

2nd Verse:
This is the sound of kicking and screaming into the night, into the night!
e|-----------------------------------------------------------------------|
B|-----------------------------------------------------------------------|
G|-----------------------------------------------------------------------|x2
D|--7777777----------------3/555-55---3/555-33---------------------------|
A|--5555555--8888888-------3/555-55---3/555-11---------------------------|
E|-----------6666666-----0/1/333-33-0/1/333------------------------------|
Your Being Lied To by those who should protect you (repeat)
e|---------------------------------------------------------------------------|
B|---------------------------------------------------------------------------|
G|---------------------------------------------------------------------------|
D|-4/55555555\3333333\2222222------------------------------------------------|
A|---------------------------------------------------------------------------|
E|---------------------------0/1/3333-3-3333333/6666666\10000001/33-3--------|

Chorus:
((You're Being Lied To) X3, by those who should protect you)x2
e|-------------------------------------------------------------------------|
B|-------------------------------------------------------------------------|
G|------------------5555555------------------------------5555555-----------|
D|--5555555-8888888-5555555----3/5555-5--5555555-8888888-5555555---3/5555-5|
A|--5555555-8888888-3333333----3/5555-5--5555555-8888888-3333333---3/5555-5|
E|--3333333-6666666----------0/1/3333-3--3333333-6666666---------0/1/3333-3|

3rd Verse:
  A Parachute for the cliff that comes with your tomorrow x4
e|-----------------------------------------------------------------------|
B|------3-3----3-3------6-6-----------------3-3----3-3------6-6----------|
G|-----------------------------------------------------------------------|
D|----5------3-------8---------10-10------5------3--------8--------10-10-|
A|---------------------------10----------------------------------10------|
E|--3-------1-------6------8------------3-------1-------6------8---------|
  A Parachute for the cliff that comes with your tomorrow x4
e|-------------------------------------------------------------------------|
B|-------------------------------------------------------------------------|
G|-------------------------------------------------------------------------|
D|-------------------------------------------------------------------------|
A|---------------------5555555--------------------------5555555/8888888----|
E|--78\7777777/8888888/-------\8888888\77777777/8888888/-------------------|

Chorus:
((You're Being Lied To) X3, by those who should protect you)x2
e|-------------------------------------------------------------------------|
B|-------------------------------------------------------------------------|
G|------------------5555555------------------------------5555555-----------|
D|--5555555-8888888-5555555----3/5555-5--5555555-8888888-5555555---3/5555-5|
A|--5555555-8888888-3333333----3/5555-5--5555555-8888888-3333333---3/5555-5|
E|--3333333-6666666----------0/1/3333-3--3333333-6666666---------0/1/3333-3|

Drums only

e|-------------------------------------------------------------------------|
B|-------------------------------------------------------------------------|
G|-------------------------------------------------------------------------|
D|--------------------------------55555555555555---------------------------|
A|--55555555555555-88888888888888-33333333333333--3/5555555555-------------|
E|--33333333333333-66666666666666----------------01/3333333333-------------|

Feedback fade out.

NOTE: The slides are only one eight i.e. 3/5, is one eight (or 2 16ths), the same as a 
note i.e. 5.

| /  slide up
| \  slide down
| h  hammer-on
| p  pull-off
| ~  vibrato
| +  harmonic
| x  Mute note
============================================================================
Tap to rate this tab
# A B C D E F G H I J K L M N O P Q R S T U V W X Y Z